» » »

Paramore, Brick By Boring Brick Tabs (ver.1)

Artists:  A B C D E F G H I J K L M N O P Q R S T U V W X Y Z # 

Brick By Boring Brick Tabs (ver.1)

Paramore Tabs
Rating:
3/5 (10 votes)
Brick By Boring Brick lessons Tabs too difficult? Try these video lessons and learn fast
                pages/Arista-Lucena/226729694026830
09283150081 

Loc-LUCENA SHC

Tuning - standard

Intro-
josh-
|-0---------------0--------------0--------------0---------|
|-0---------------0--------------0--------------0---------|
|-11--(8x)--------11---(4x)------11--(4x)-------9---(16x)-|
|-11--------------11-------------12-------------11--------|4x
|-9---------------------------------------------0---------|
|-----------------9--------------10-----------------------|

Taylor's part

0:12(using korg ax1500G...switch to the "pitch shifter" :)
|-------------------------------------------------------------|
|-------------------------------------------------------------|
|----------11~--9~-----------------------11~--9~--------------|
|-------7~----------11~---11^r~-------7~----------11~---11^r~-|
|--7/9~--------------------------7/9~-------------------------|
|-------------------------------------------------------------|



Verse-
0:36
GtrI
|-0-0---0---0------0-0----0---0----0-0--0---0---0-0-0--0-0--|
|-0-0---0---0------0-0----0---0----0-0--0---0---0-0-0--0-0--|
|-1111--11--11-----1111---11--11---9-9--9---9---9-9-9--9-9--|
|-1111--11--11-----1111---12--12---1111-11--11--111111-1111-|2x
|-9-9---9---9------x-x----x---x----0-0--0---0---0-0-0--0-0--|
|------------------9-9----10--10----------------------------|

GtrII
|----------------------------|---------------------------------|
|----------------------------|---------------------------------|
|----------11~--9~-----------|------------11~--9~--------------|
|-------------------11~------|--------------------11~----------|
|--7/9~----------------------|----7/9~-------------------------|
|----------------------------|---------------------------------|


Refrain-
0:46


GtrII
|-----0~----0~------0~-------0~-|-----0~----0~-----0~----0~--|
|-----0~----0~------0~-------0~-|-----0~----0~-----0~----0~--|
|-----9~----9~------11~------7~-|-----9~----9~-----11~---14~-|
|--9~----9~-----11~------7~-----|-9~-----9~----11~----14~----|
|--7~----7~-----9~-------5------|-7------7-----9------11-----|
|-------------------------------|----------------------------|

GtrII
|----(0)---(0)------(0)-----(0)----(0)---(0)---(0)---(0)--|
|----(0)---(0)------(0)-----(0)----(0)---(0)---(0)---(0)--|
|---------------------------------------------------------|
|--9~----(9~)-----11~------7~-----6~----(6)----7~----9~---|
|---------------------------------------------------------|
|---------------------------------------------------------|

Chorus-2x
GrtI
|-0----------0---------0---------0-----------|
|-0----------0---------0---------0-----------|
|-x----------9---------x---------1-----------|
|-7-(8x)-----9--(8x)---4-(8x)----2--(8x)-----|
|-7----------x---------4---------2-----------|
|-5----------9---------2---------0-----------|

GtrII
|--------------------------------------------------------|
|------10-9-------------------------10-9~----------------|
|-------------9~-----------------------------------------|
|-7/11------------------------7/11-----------------------|
|--------------------------------------------------------|
|--------------------------------------------------------|

|------0~-------------0~----------------------------------|
|------0~-------------0~----------------------------------|
|---------------------------------------------------------|
|-7/6------6/7--7\6--------11~-/-9~---9/11--11-s--9~------|
|---------------------------------------------------------|
|---------------------------------------------------------|


Then-Bass F# C#-D A
GtrI II pause
then

1:25

|-0--------------0---------------0--------------0--------------0---------|
|-0--------------0---------------0--------------0--------------0---------|
|-9---(8x)-------11--(8x)--------11---(4x)------11--(4x)-------9---(16x)-|
|-11-------------11--------------11-------------12-------------11--------|
|-0--------------9---------------------------------------------0---------|
|--------------------------------9--------------10-----------------------|

|----------------------------------------------------|
|----------------------------------------------------|
|---------------------------11~-9~-------------------|
|--11^r~----------------7~----------11~------11^r~---|
|-------------------7/9------------------------------|
|----------------------------------------------------|

Do verse

GtrI
|----------------------------|-12+~~~~~~~~~~~~~~~~~~~~~~~~~~~--|
|----------------------------|---------------------------------|
|----------------------------|---------------------------------|
|--11~~~~~~~~~~~~~~~~~~~~~~--|---------------------------------|
|----------------------------|---------------------------------|
|----------------------------|---------------------------------|

Do chorus

Interlude-
GtrI
|-x-----------x-----------x-----------x--------------|
|-x-----------x-----------x-----------x--------------|
|-11----------11----------6-----------1--------------|
|-11-(16x)----12--(16x)---7----(16x)--2----(16x)-----|
|-9-----------12----------7-----------2--------------|
|-------------10----------5-----------0--------------|
GtrII
|--------------------------------------------------------------|
|--------------------------------------------------------------|
|-xx-111111-666-4444444444-xx-777-141414-13131313131313131313--|
|-xx-----------------------xx----------------------------------|
|-xx-9-9-9--444-2222222222-xx-555-121212-11111111111111111111--|
|--------------------------------------------------------------|

|--------------------------------------------------|
|--------------------------------------------------|
|-xx-99999999-1111111111111111-66666666-44444444---|
|-xx-----------------------------------------------|
|-xx-77777777-9-9-9-9-9-9-9-9--44444444-22222222---|
|--------------------------------------------------|

Bridge-
GtrI
|-x-----------x-----------x-----------x--------------|
|-x-----------x-----------x-----------x--------------|
|-11----------11----------6-----------1--------------|
|-11-(16x)----12--(16x)---7----(16x)--2----(16x)-----|with pausing...
|-9-----------12----------7-----------2--------------|
|-------------10----------5-----------0--------------|

GtrII
|--------------------------------------------------------------|
|--------------------------------------------------------------|
|-xx-111111-666-4444-4-4-4-xx-777-141414-13131313131313131313--|
|-xx-----------------------xx----------------------------------|
|-xx-9-9-9--444-2222-2-2-2-xx-555-121212-11111111111111111111--|
|--------------------------------------------------------------|

|--------------------------------------------------|
|--------------------------------------------------|
|--xx999999999-9-9-9--66666666-44444444------------|
|--------------------------------------------------|
|--xx777777777-7-7-7--44444444-22222222------------|
|--------------------------------------------------|


Bridge2-

GrtI(let ring)
|-0----------0---------0---------0-----------|
|-0----------0---------0---------0-----------|
|-6----------9---------11--------9-----------|
|-7----------9---------11--------9-----------|2x
|-7----------x---------9---------7-----------|
|-5----------9-------------------------------|
                                  
         
3:07
|---------------------------------------------------------|
|-----------10-12--10-----9-10-------9~-------------------|
|----9--9--------------9----------------------------------|
|-11------------------------------------------------------|
|---------------------------------------------------------|
|---------------------------------------------------------|

Do chorus -
3:42
then
|---------------------------------------------------------|
|---------------------------------------------------------|
|---------------------------------------------------------|
|-4~------------------------------------------------------|
|-4~------------------------------------------------------|
|-2~------------------------------------------------------|


then-
3:48
|---------------------------------------------------------|
|---------------------------------------------------------|
|-11--(8x)--------11---(4x)------11--(4x)-------9---(16x)-|
|-11--------------11-------------12-------------11--------|till end
|-9---------------------------------------------0---------|
|-----------------9--------------10-----------------------|
  *               *               *             *


4:00
|---------------------------------------------------------|
|---------------------------------------------------------|
|---------------------------------------------------------|
|-11r~---11r~----11r~---11r~-----11r~----11r~-----11r~----|till end
|---------------------------------------------------------|
|---------------------------------------------------------|

 
            
Submit corrections

comments powered by Disqus
↑ Back to top | Paramore Tabs for Brick By Boring Brick. Lyrics for acoustic guitar and electric guitar. Tablatures and chords are parodies/interpretations of the original songs. You may use it for private study, scholarship, research or language learning purposes only