>
 >
Slip

Slip Chords

Paraluman - Slip chords, tabs, tablatures, lyrics

Guitar lessons | Add/correct | Request | Top 50 tabs Artists:  A B C D E F G H I J K L M N O P Q R S T U V W X Y Z 0-9

Slip Chords – Paraluman

CD, Sheet music, Poster

Do you like Slip? Share with your friends now
ChordsUkulele
Title      :    Slip
Artist     :    Paraluman
Album      :    Paraluman In-Lab

For any Comments and Suggestions:


Tuning: Standard

Intro: E-Esus4-C#m-Bm (2x)

Do this in Intro/Chorus:

Guitar 1:
e--------------------------4/5-------------------------4/5--|
b---5---5---5/77---5---5----------5---5---5/77--5---5-------|
g-----4---4---------4----4----------4---4---------4---4-----|
D-----------------------------------------------------------|
A-----------------------------------------------------------|
E-----------------------------------------------------------|

Guitar 2:
e-----------------------------------------|
b-5---5---7--5-44-5---5---5---7-5-44-5----|
g---4---4---------------4---4-------------|
D-----------------------------------------|
A-----------------------------------------|
E-----------------------------------------|

Guitar 3:

e---------------------------------------------|
b---------------------------------------------|
g-9999----6666---44444--9999--666666---44444--|
D-9999----6666---44444--9999--666666---44444--|
A-7777----4444---22222--7777--444444---22222--|
E---------------------------------------------|

Verse:

E   Esus4 C#m-Bm
How am I live?

E   Esus4 C#m-Bm
When everything is gone

E   Esus4 C#m-Bm
What is there to give?

E   Esus4 C#m-Bm
When all you are is none


Refrain:

Am               Bm
Could you still taste or closeness?

Am               Bm
Could you breathe me in your life?


Chorus:

E   Esus4   C#m-           Bm
I want to be off with you (I want tO)

E   Esus4   C#m-           Bm
So let me set this fire away

E   Esus4   C#m-           Bm
I want to be off with you (I want to)

E   Esus4   C#m-           Bm
So let me set this fire away)


Do Cp: E-Esus4-C#m-Bm (2x)

(Do Cp: E-Esus4-C#m-Bm)
Who am I to be?
Is this the same intention?
Are you still apart of me?
In this resurrection
(repeat refrain)
(repeat chorus)


Interlude:
e--------------------------------------------|
b--------------------------------------------|
g--999999--13131313---14141414----1616161616-|
D--xxxxxx--xxxxxxx----xxxxxxxx----xxxxxxxxxx-| #1
A--777777--1111111----12121212----1414141414-|
E--------------------------------------------|

Life is whimsical..(Do this in bridge)
e--------------------------------------------|
b--------------------------------------------|
g-14---13--11--9--9--11--14--13--------------| #2
D-xx---xx--x---x--x--x---xx--xx--------------|
A-12---11--9---7--7--9---12--11--------------|
E--------------------------------------------| 

Both Guitar 2 and 3:

e-----------------------------------------|
b-----------------------------------------|
g--99999---131313----141414---16161616----|
D--99999---131313----141414---16161616----|
A--77777---111111----121212---14141414----|
E-----------------------------------------|

Bridge:

A
Life is whimsical..

Abm
Where to we head off..

A
Life's unfair take it away

Abm            E
To be comic slip life

(repeat refrain)

Do this in Chorus: 

Fill-in
e-------------------------------------------|
b-4-55/7--5-4-55/7--12-10-9-7-9p10-4-55/7---|
g-------------------------------------------| 2x
D-------------------------------------------|
A-------------------------------------------|
E-------------------------------------------|


Chorus:

E   Esus4   C#m-           Bm
I want to be off with you (I want tO)

E   Esus4   C#m-           Bm
So let me set this fire away

E   Esus4   C#m-           Bm
I want to be off with you (I want to)

E   Esus4   C#m-           Bm
So let me set this fire away)


*If you want to Learn How to Read Tabs Just Text me: 09082360710/09156169501
 

'=================='
/   RoCk En RoLL   \
'------------------'





Comments


Popular Paraluman tabs & chords
Emily Chords
Maghanap Ng Iba 1 Chords
Tabi Chords
Tabi 2 Chords
Emily 1 Tabs
In Lab Tabs
Tabi 4 Tabs
Emily 2 Ukulele
For You Ukulele
Tabi Ukulele


Song lyrics



↑ Back to top | Tablatures and chords are parodies/interpretations of the original songs. You may use it for private study, scholarship, research or language learning purposes only
© 2014 AZChords.com Contact us | Privacy policy | DMCA | Add/correct tabs | Request tabs | Top 50 tabs