» » »

Papa Roach, She Loves Me Not Tabs (ver.3)

Artists:  A B C D E F G H I J K L M N O P Q R S T U V W X Y Z # 

She Loves Me Not Tabs (ver.3)

Papa Roach Tabs
 Rating:
4/5 (4 votes)
She Loves Me Not lessons Tabs too difficult? Try these video lessons and learn fast
                
Dropped D tuning (DADGBE Low to High)

Verse

E|-------------------------------------------------------------
B|-------------------------------------------------------------
G|-------------------------------------------------------------
D|x-7--7--------x-3--3--------x-0--0--------x-2--2-x-x-2--2-x-x
A|x-7--7--------x-3--3--------x-0--0--------x-2--2-x-x-2--2-x-x
D|x-7--7--------x-3--3--------x-0--0--------x-2--2-x-x-2--2-x-x

E|---------------------------------------------------------------
B|---------------------------------------------------------------
G|---------------------------------------------------------------
D|x-7--7--------x-3--3--------x-0--0--------x-2--2-x-x-5--5-x-x-x
A|x-7--7--------x-3--3--------x-0--0--------x-2--2-x-x-3--3-x-x-x
D|x-7--7--------x-3--3--------x-0--0--------x-2--2-x-x-5--5-x-x-x

Pre-Chorus

E|---------------------------------------------------------------------------
B|---------------------------------------------------------------------------
G|-------10-10-5-x-5--------10-10-5-x-5--------10-10-5-x-5--------10-10-5-x-5
D|7--7-x-x--x--x-x-x-3--3-x-x--x--x-x-x-0--0-x-x--x--x-x-x-2--2-x-x--x--x-x-3
A|7--7-x-8--8--3-x-3-3--3-x-8--8--3-x-3-0--0-x-8--8--3-x-3-2--2-x-8--8--3-x-3
D|7--7-x-------------3--3-x-------------0--0-x-------------2--2-x------------

Chorus

E|-----------------------------------------
B|-----------------------------------------
G|-----------------------------------------   x2
D|3-3-3--3---5-5-5--5---7-7-7--7---7-7-7--7
A|3-3-3--3---5-5-5--5---7-7-7--7---7-7-7--7
D|3-3-3--3---5-5-5--5---7-7-7--7---7-7-7--7

Fill 

E|-----------------------------
B|-----------------------------
G|-----------------------------
D|3--3----3-3-5--5---5-5-5-7--7
A|3--3----3-3-5--5---5-5-5-7--7
D|3--3----3-3-5--5---5-5-5-7--7

Bridge

E|---------------------------------0----------0
B|---------------------------------0----------0
G|---------------------------------9----------9
D|10-10-10--10---5-5-5--5---7-7-7--9---7-7-7--9
A|10-10-10--10---5-5-5--5---7-7-7--7---7-7-7--7
D|10-10-10--10---5-5-5--5---7-7-7--7---7-7-7--7

E|---------------------------------0----------0-0
B|---------------------------------0----------0-0
G|---------------------------------9----------9-9
D|10-10-10--10---5-5-5--5---7-7-7--9---7-7-7--9-9
A|10-10-10--10---5-5-5--5---7-7-7--7---7-7-7--7-7
D|10-10-10--10---5-5-5--5---7-7-7--7---7-7-7--7-7

Outro

E|--------------------------------------------------------------------
B|--------------------------------------------------------------------
G|-------------------------------------------------------------------- 
D|3-3-3-3-3-3-3-3--5-5-5-5-5-5-5-5--7-7-7-7-7-7-7-7--5-7-7-7-7-7-7-7-7
A|3-3-3-3-3-3-3-3--5-5-5-5-5-5-5-5--7-7-7-7-7-7-7-7--5-7-7-7-7-7-7-7-7
D|3-3-3-3-3-3-3-3--5-5-5-5-5-5-5-5--7-7-7-7-7-7-7-7--5-7-7-7-7-7-7-7-7

E|---------------------------------0----------0
B|---------------------------------0----------0
G|---------------------------------9----------9
D|10-10-10--10---5-5-5--5---7-7-7--9---7-7-7--9
A|10-10-10--10---5-5-5--5---7-7-7--7---7-7-7--7
D|10-10-10--10---5-5-5--5---7-7-7--7---7-7-7--7

E|-------------------------------------------------------------
B|-------------------------------------------------------------
G|-------------------------------------------------------------
D|10-10-10--10---12-12-12--12----------------------------------
A|10-10-10--10---12-12-12--12----------------------------------
D|10-10-10--10---12-12-12--12---2-2-2-2-2-2-2-2-2-2-2-2-2-2-2-2
                                PM-----------------------------|

E|--------------------------------
B|--------------------------------
G|-------5----------7------------9
D|3-3-3--3---5-5-5--5---7-7-7-7--7
A|3-3-3--3---5-5-5--5---7-7-7-7--7
D|3-3-3--3---5-5-5--5---7-7-7-7--7
		                 Let ring......

Order:

Verse
Pre-Chorus
Chorus
Fill
Verse
Pre-Chorus
Chorus
Bridge
Fill
Verse
Pre-Chorus
Chorus
Bridge
Pre-Chorus
Chorus
Outro
            
Submit corrections

comments powered by Disqus
↑ Back to top | Papa Roach Tabs for She Loves Me Not. Lyrics for acoustic guitar and electric guitar. Tablatures and chords are parodies/interpretations of the original songs. You may use it for private study, scholarship, research or language learning purposes only