» » »

Papa Roach, She Loves Me Not Bass tabs (ver.2)

Artists:  A B C D E F G H I J K L M N O P Q R S T U V W X Y Z # 

She Loves Me Not Bass tabs (ver.2)

Papa Roach Tabs
Rating:
0/5 (0 votes)
Hard to play? Try these video lessons and learn fast.
                
Verse
G|--------------------------------------------------------|
D|--------------------------------------------------------|
A|--------------------------------------------------------|
D|---5-7-7---7-5-5---5-3-3---1-3-3--1-1-1-3-3-1-1-1-7-7---|

G|----------------------------------|
D|----------------------------------|
A|----------------------------------|
D|---7-5-5---5-3-3---1-3-3--3-1-1---|

G|--------------------------------------------------------|
D|--------------------------------------------------------|
A|--------------------------------------------------------|
D|---5-7-7---7-5-5---5-3-3---1-3-3--1-1-1-3-3-1-1-1-7-7---|

Pre-Chorus
G|--------------------------------------------------------------------------------|
D|--------------------------------------------------------------------------------|
A|--------------------------------------------------------------------------------|
D|---7-7-7-7---7-7-6-5-5---5-5-5-5---5-5-4-3-3---3-3-3-3---3-3-4-5-5---5-5-5--5---|

Chorus
G|---------------------------------------------------------------|
D|---------------------------------------------------------------|
A|---------------------------------------------------------------|
D|---3-3-3--3-3---5-5-5--5-5---7-7-7--7-7--7-7-7---7-5-3-5-3-1---|

G|-------------------------------------------------|
D|-------------------------------------------------|
A|-------------------------------------------------|
D|---3-3-3--3-3---5-5-5--5-5---7-7-7--7-7--7-7-7---|

Post-Chorus
G|---------------------------------------------|
D|---------------------------------------------|
A|---------------------------------------------|
D|---7-5-3-5-3-1-3-3---3-2-3-5-5---5-4-5-7-7---|

Verse without first three notes

Pre-Chorus

Chorus

Bridge
G|-------------------------------------------------------------|
D|-------------------------------------------------------------|
A|-------------------------------------------------------------|
D|---10-10-10--10-10---5-5-5--5-5---7-7-7--7-7--6-7-7-7--7-7---|

G|--------------------------------------------------------|
D|--------------------------------------------------------|
A|--------------------------------------------------------|
D|---10-10-10--10-10---5-5-5--5-5---7-7-7--7-7--6-7-7-7---|

Post-Chorus

Verse without first three notes

Pre-Chorus

Chorus

Breakdown
G|----------------------------------------------------------------------------|
D|----------------------------------------------------------------------------|
A|----------------------------------------------------------------------------|
D|---3-3-3-3-3-3-3-25-5-5-5-5-5-5-47-7-7-7-7-7-7-67-7-7-7--1010101010101010---|

Ending
G|--------------------------------------------------------------------|
D|--------------------------------------------------------------------|
A|--------------------------------------------------------------------|
D|---10-10-10--10-10---5-5-5--5-5---7-7-7--7-7--7-7-7---7-5-3-5-3-1---|

G|---------------------------------------------------------------------------------------|
D|---------------------------------------------------------------------------------------|
A|---------------------------------------------------------------------------------------|
D|---3-3-3---0-0-0---1-1-1-1-1-1-1-1-1-1-1-1-1-1-1-1---3-3-3--3--5-5-5--5--7-7-7-7--7*---|
            

comments powered by Disqus
↑ Back to top | Papa Roach Bass for She Loves Me Not. Lyrics for acoustic guitar and electric guitar. Tablatures and chords are parodies/interpretations of the original songs. You may use it for private study, scholarship, research or language learning purposes only