» » »

Papa Roach, Orange Drive Palms Tabs (ver.3)

Artists:  A B C D E F G H I J K L M N O P Q R S T U V W X Y Z # 

Orange Drive Palms Tabs (ver.3)

Papa Roach Tabs
 Rating:
4/5 (4 votes)
Orange Drive Palms lessons Tabs too difficult? Try these video lessons and learn fast
                
INTRO (CLEAN)
E]---------------------------------------------
B]---------------------------------------------
G]---------------------------------------------
D]-------5-4---4-4----------5-4---4-4----------
A]-2-2-2-------2-2----2-2-2-----2-2-2----------
D]---------------------------------------------
PM------              -----     -     
E]---------------------------------------------
B]---------------------------------------------
G]---------------------------------------------
D]-------5-4---4-4----------5-4---4-4---------
A]-2-2-2-|---2-2-2----2-2-2-------2-2---------
D]-------|------------------------------------
PM------ |   -        -----
         |
There’s a| variation with
this   note(the five) you can hear it two times instead of one, but I’m not sure if it’s a real variation or a mistake of Jerry, It´s your decision if you play one or two times that note.
NOW PUT DISTORTION
E]--------------------------------------------------
B]--------------------------------------------------
G]-4-----------4-----------4-----------4------------
D]-4-0-5-4-2-4-4-0-5-4-2-4-4-0-5-4-2-4-4-0-5-4-2-4--
A]-2-0-5-4-2-4-2-0-5-4-2-4-2-0-5-4-2-4-2-0-5-4-2-4--
D]---0-5-4-2-4---0-5-4-2-4---0-5-4-2-4---0-5-4-2-4--

E]------------------------------------------------
B]------------------------------------------------
G]-4--------4-----------4-----------4-------------
D]-4-0-5-4--4-0-5-4-2-4-4-0-5-4-2-4-4-0-5-4-2-4---
A]-2-0-5-4--2-0-5-4-2-4-2-0-5-4-2-4-2-0-5-4-2-4---
D]---0-5-4----0-5-4-2-4---0-5-4-2-4---0-5-4-2-4---

VERSE
E]---------------------------------------------
B]---------------------------------------------
G]---------------------------------------------
D]-------5-4---------4-4-----4-4---------------
A]-2-2-2-----2-3-3-3-----3-3-------------------
D]---------------------------------------------

Chorus
E]--------------------------------------------------
B]--------------------------------------------------
G]-4-----------4-----------4-----------4------------
D]-4-0-5-4-2-4-4-0-5-4-2-4-4-0-5-4-2-4-4-0-5-4-2-4--
A]-2-0-5-4-2-4-2-0-5-4-2-4-2-0-5-4-2-4-2-0-5-4-2-4--
D]---0-5-4-2-4---0-5-4-2-4---0-5-4-2-4---0-5-4-2-4--

E]------------------------------------------------
B]------------------------------------------------
G]-4--------4-----------4-----------4-------------
D]-4-0-5-4--4-0-5-4-2-4-4-0-5-4-2-4-4-0-5-4-2-4---
A]-2-0-5-4--2-0-5-4-2-4-2-0-5-4-2-4-2-0-5-4-2-4---
D]---0-5-4----0-5-4-2-4---0-5-4-2-4---0-5-4-2-4---

VERSE
E]---------------------------------------------
B]---------------------------------------------
G]---------------------------------------------
D]-------5-4---------4-4-----4-4---------------
A]-2-2-2-----2-3-3-3-----3-3-------------------
D]---------------------------------------------


Prechorus

E]---------------------------------------------
B]---------------------------------------------
G]---------------------------------------------
D]-4-4-4-4---4-4-4-4-*-5-5-5-5---5-5-5-5-*-----
A]-2-2-2-2---2-2-2-2-*-3-3-3-3---3-3-3-3-*-----
D]---------------------------------------------
*Pick slide
Chorus
E]--------------------------------------------------
B]--------------------------------------------------
G]-4-----------4-----------4-----------4------------
D]-4-0-5-4-2-4-4-0-5-4-2-4-4-0-5-4-2-4-4-0-5-4-2-4--
A]-2-0-5-4-2-4-2-0-5-4-2-4-2-0-5-4-2-4-2-0-5-4-2-4--
D]---0-5-4-2-4---0-5-4-2-4---0-5-4-2-4---0-5-4-2-4--

E]------------------------------------------------
B]------------------------------------------------
G]-4--------4-----------4-----------4-------------
D]-4-0-5-4--4-0-5-4-2-4-4-0-5-4-2-4-4-0-5-4-2-4---
A]-2-0-5-4--2-0-5-4-2-4-2-0-5-4-2-4-2-0-5-4-2-4---
D]---0-5-4----0-5-4-2-4---0-5-4-2-4---0-5-4-2-4---
Then this (clean)
E]---------------------------------------------
B]---------------------------------------------
G]---------------------------------------------
D]-----5---------4-4-----4-4-------------------
A]-2-2---3-3-3-3-----3-3-----------------------
D]---------------------------------------------
Then
VERSE
E]---------------------------------------------
B]---------------------------------------------
G]---------------------------------------------
D]-------5-4---------4-4-----4-4---------------
A]-2-2-2-----2-3-3-3-----3-3-------------------
D]---------------------------------------------

Chorus whit a little variation
E]--------------------------------------------------
B]--------------------------------------------------
G]-4-----------4-----------4-----------4------------
D]-4-0-5-4-2-4-4-0-5-4-2-4-4-0-5-4-2-4-4-0-5-4-2-4--
A]-2-0-5-4-2-4-2-0-5-4-2-4-2-0-5-4-2-4-2-0-5-4-2-4--
D]---0-5-4-2-4---0-5-4-2-4---0-5-4-2-4---0-5-4-2-4--
                                               here
E]----------------------------------------------
B]----------------------------------------------
G]-4--------4---------4-----------4-------------
D]-4-0-5-4--4-0-5-4-2-4-0-5-4-2-4-4-0-5-4-2-4---
A]-2-0-5-4--2-0-5-4-2-2-0-5-4-2-4-2-0-5-4-2-4---
D]---0-5-4----0-5-4-2---0-5-4-2-4---0-5-4-2-4---
                  Here

E]---------------------------------------------
B]---------------------------------------------
G]---------------------------------------------
D]-------5-4---------4-4-----4-4---------------
A]-2-2-2-----2-3-3-3-----3-3-------------------
D]---------------------------------------------









Chorus
E]--------------------------------------------------
B]--------------------------------------------------
G]-4-----------4-----------4-----------4------------
D]-4-0-5-4-2-4-4-0-5-4-2-4-4-0-5-4-2-4-4-0-5-4-2-4--
A]-2-0-5-4-2-4-2-0-5-4-2-4-2-0-5-4-2-4-2-0-5-4-2-4--
D]---0-5-4-2-4---0-5-4-2-4---0-5-4-2-4---0-5-4-2-4--

E]------------------------------------------------
B]------------------------------------------------
G]-4--------4-----------4-----------4-------------
D]-4-0-5-4--4-0-5-4-2-4-4-0-5-4-2-4-4-0-5-4-2-4---
A]-2-0-5-4--2-0-5-4-2-4-2-0-5-4-2-4-2-0-5-4-2-4---
D]---0-5-4----0-5-4-2-4---0-5-4-2-4---0-5-4-2-4---


Then this
E]----------------------------------------------
B]----------------------------------------------
G]----------------------------------------------
D]---4-5-4-----4-5-4-5-----4-5-4-----4-5-4-5----
A]-2-------2-3---------3-2-------2-3---------3--
D]----------------------------------------------
            
Submit corrections

comments powered by Disqus
↑ Back to top | Papa Roach Tabs for Orange Drive Palms. Lyrics for acoustic guitar and electric guitar. Tablatures and chords are parodies/interpretations of the original songs. You may use it for private study, scholarship, research or language learning purposes only