» » »

Orange Drive Palms Tabs (ver.1)

Artists:  A B C D E F G H I J K L M N O P Q R S T U V W X Y Z # 

Orange Drive Palms Tabs (ver.1)

Papa Roach
Rating:
0/5 (0 votes)

Hard to play? Try these video lessons and learn fast.
                

E------------------------------------------------------------------
B------------------------------------------------------------------
G------------------------------------------------------------------
D----------5-4--44-------------5-4--44-----------------------------
A--2-2-(2)------22------2-2-(2)-----22-----------------------------
E------------------------------------------------------------------

E------------------------------------------------------------------
B------------------------------------------------------------------
G------------------------------------------------------------------
D--4-4--5--4-x-4-x-4----4-4--5--4-x-4-x-4--------------------------
A--2-2-(2)-2-x-2-x-2----2-2-(2)-2-x-2-x-2--------------------------
E------------------------------------------------------------------

    REMEMBER THE PALMS

E------------------------------------------------------------------
B------------------------------------------------------------------  G------------------------------------------------------------------
D------------------------------------------------------------------
A---9-(9)-let it ring--10-10-let it ring---------------------------
E---7-(7)-let it ring---8--8-let it ring---------------------------

     RIFF 5:

E|-----------------------------------------------------------------
B------------------------------------------------------------------
G------------------------------------------------------------------
D------------------------------------------------------------------
A------9-10-9-(0)-----9-10-9-10-(0)--9-10-9-(0)--------------------
E--(7)-----------(0)-8-------------7-----------(0)-8---------------

     RIFF 6:

E------------------------------------------------------------------
B------------------------------------------------------------------
G------------------------------------------------------------------
D------9-10-9---------9-10-9-10------9-10-9------------------------
A------9-10-9-(0)-----9-10-9-10-(0)--9-10-9-(0)--------------------
E--(7)-----------(0)-8-------------7-----------(0)-8---------------

E------------------------------------------------------------------  B------------------------------------------------------------------
G------------------------------------------------------------------
D--------12-11-9-11------------------------------------------------ A---9-12-10-9--7--9------------------------------------------------
E---7-10-----------------------------------------------------------

IM NOT SURE ABOUT THE ORDER ITS EASY TO GET ENJOY
            
Hard to play? Try these video lessons and learn fast. | Correct




comments powered by Disqus
↑ Back to top | Tablatures and chords are parodies/interpretations of the original songs. You may use it for private study, scholarship, research or language learning purposes only