>
 >
Never Enough 1

Never Enough 1 Guitar Tabs

Papa Roach - Never Enough 1 chords, tabs, tablatures, lyrics

Guitar lessons | Add/correct | Request | Top 50 tabs Artists:  A B C D E F G H I J K L M N O P Q R S T U V W X Y Z 0-9

Never Enough 1 Guitar Tabs – Papa Roach

CD, Sheet music, Poster

Do you like Never Enough 1? Share with your friends now
Bass TabsBass Tabs v2TabsTabs v2Tabs v3
Intro Part 1  x4
e|----------------------------------------------------------------------------
B|----------------------------------------------------------------------------
G|----------------------------------------------------------------------------
D|----7--(7)----6-9-----------------------------------------------------------
A|----5--(5)----4-7-----------------------------------------------------------
D|----7--(7)----6-9-----------------------------------------------------------
   or it might be(credit to PapaRoach01):
e|----------------------------------------------------------------------------
B|----------------------------------------------------------------------------
G|----------------------------------------------------------------------------
D|----0--(0)----6-2-----------------------------------------------------------
A|----0--(0)----4-2-----------------------------------------------------------
D|----0--(0)----6-2-----------------------------------------------------------  
  
Intro Part 2 x1 (High and hard to hear unless you listen carefully.  Comes
in on the last chord of Part 1 on the 2nd time.)
e|----------------------------------------------------------------------------
B|---------------------------------------------------------------------------- 
G|--11-(11)----/-12--(12)-/14-(14)-\------------------------------------------ 
D|---x--(x)------x---(x)----x--(x)-------------------------------------------- 
A|---9--(9)----/-10--(10)-/12-(12)-\------------------------------------------ 
D|----------------------------------------------------------------------------  

  
  Intro Part 3 x1                                                          
(There is another part that comes in on the 4th time on the first chord of
Part 1.)  I think it may be this chord:
e|----------------------------------------------------------------------------
B|---------------------------------------------------------------------------- 
G|---9--(9)-------------------------------------------------------------------
D|---x------------------------------------------------------------------------
A|---7--(7)-------------------------------------------------------------------
D|----------------------------------------------------------------------------
  
   

  Pre-Verse Part 1 x4
E|----------------------------------------------------------------------------
B|---7-7-7-10-10-10-9-9-9-10-10-10-12-12-10-9---------------------------------
G|----------------------------------------------------------------------------
D|----------------------------------------------------------------------------
A|----------------------------------------------------------------------------
D|---------------------------------------------------------------------------- 
  
  Pre-Verse Part 2 x2
E|----------------------------------------------------------------------------
B|----------------------------------------------------------------------------
G|----------------------------------------------------------------------------
D|--6-6-6--x-6---6-6-6--x-6---6-6-6--x-6---6-6-6---x-0------------------------
A|--4-4-4--x-4---4-4-4--x-4---4-4-4--x-4---4-4-4---x-0------------------------
D|--4-4-4--x-4---4-4-4--x-4---4-4-4--x-4---4-4-4---x-0------------------------
   
   

  Verse Part 1  (Part 1 x2, whole verse is played 2 times.)
E|----------------------------------------------------------------------------
B|----------------------------------------------------------------------------
G|----------------------------------------------------------------------------
D|--6-6-6--x-6---6-6-6--x-6---6-6-6--x-6---6-6-6---x-0------------------------
A|--4-4-4--x-4---4-4-4--x-4---4-4-4--x-4---4-4-4---x-0------------------------
D|--4-4-4--x-4---4-4-4--x-4---4-4-4--x-4---4-4-4---x-0------------------------
  
  Verse Part 2 x1 (Played 2 times throughout the whole verse.)
E|----------------------------------------------------------------------------
B|----------------------------------------------------------------------------
G|--4-4-4---x-4---4-4-4---x-4---4-4-4---x-4---4-4-4---x-4---------------------
D|--4-4-4---x-4---4-4-4---x-4---4-4-4---x-4---4-4-4---x-4---------------------
A|--2-2-2---x-2---2-2-2---x-2---2-2-2---x-2---2-2-2---x-2---------------------
D|----------------------------------------------------------------------------
  
  Verse Part 3 (Played underneath Part 2.)
E|----------------------------------------------------------------------------
B|----------------------------------------------------------------------------
G|----------------------------------------------------------------------------
D|--4-4-4-7-7-7-6-6-6-7-7-7-9-9-7-6-------------------------------------------
A|----------------------------------------------------------------------------
D|----------------------------------------------------------------------------       
   pm..............................|
  
   

  Chorus Part 1 x3    Part 2    x1                                        
E|-----------------|---------------------------------------------------------- 
B|-----------------|----------------------------------------------------------
G|-----------------|----------------------------------------------------------
D|-----------------|----------------------------------------------------------
A|--4h7-4h6-4p0----|---4h7-4h6-7p4p0------------------------------------------
D|--4h7-4h6-4p0----|---4h7-4h6-7p4p0------------------------------------------ 
          or it might be:
           x3           x1
E|-----------------|---------------------------------------------------------- 
B|-----------------|----------------------------------------------------------
G|-----------------|----------------------------------------------------------
D|-----------------|----------------------------------------------------------
A|--4h7-4h6-4p0----|---4h7-4h6-4p2p0------------------------------------------
D|--4h7-4h6-4p0----|---4h7-4h6-4p2p0------------------------------------------ 


*Whole chorus is both parts 4 times all the way through. 

*At 2:02 it goes to the intro again (Part 1,2,and 3).  Starts with Part 3
layered under Part 1.  Played a little different (Just listen to it and you’ll
get it.) and 4 times.  
 
 

  Interlude Part 1  x4
e|----------------------------------------------------------------------------
B|----------------------------------------------------------------------------
G|----------------------------------------------------------------------------
D|----7--(7)----6-9-----------------------------------------------------------
A|----5--(5)----4-7-----------------------------------------------------------
D|----7--(7)----6-9-----------------------------------------------------------
 
  Interlude Part 2 x12 (Release palm muting at the end of the last time.)                        
“I feel as if I’m running........”
E|----------------------------------------------------------------------------
B|---------------------------------------------------------------------------- 
G|---------------------------------------------------------------------------- 
D|--4-4-4-7-7-7-6-6-6-7-7-7-9-9-7-6------------------------------------------- 
A|---------------------------------------------------------------------------- 
D|----------------------------------------------------------------------------      
   pm..............................|
  
  Interlude Part 3 x4
E|----------------------------------------------------------------------------
B|----------------------------------------------------------------------------
G|----------------------------------------------------------------------------
D|--4-4-4-7-7-7-6-6-6-7-7-7-9-9-7-6-------------------------------------------
A|--4-4-4-7-7-7-6-6-6-7-7-7-9-9-7-6-------------------------------------------
D|--4-4-4-7-7-7-6-6-6-7-7-7-9-9-7-6------------------------------------------- 

  Interlude Part 4  x1   Ends with this and goes into chorus.  
E|-----------------|----------------------------------------------------------
B|-----------------|----------------------------------------------------------
G|-----------------|---9------------------------------------------------------
D|--6-------9------|---x------------------------------------------------------
A|--4---0---7------|---7------------------------------------------------------
D|--6---0---9------|----------------------------------------------------------    
  x14      x8         x4
   
   


  End With  (Played like the Intro, only a little different.  The first chord
is carried into this from the chorus.) 
E|----------------------------------------------------------------------------
B|----------------------------------------------------------------------------
G|----------------------------------------------------------------------------
D|--0-(0)---0-6--(6)----------------------------------------------------------
A|--0-(0)---0-4--(4)----------------------------------------------------------
D|--0-(0)---0-6--(6)---------------------------------------------------------- 

Key:

h=hammer on

p=pull off

pm=palm mute

x=muted string

(#)=let ring





Comments


Popular Papa Roach tabs & chords
Never Enough 2 Bass Tabs
She Loves Me Not Bass Tabs
Last Resort Drum Tabs
Broken Home Tabs
I Almost Told You That I Loved You 2 Tabs
Never Enough Tabs
Revenge 5 Tabs
She Loves Me Not 7 Tabs
Tight Rope 1 Tabs
To Be Loved Ukulele


Song lyrics



↑ Back to top | Tablatures and chords are parodies/interpretations of the original songs. You may use it for private study, scholarship, research or language learning purposes only
© 2014 AZChords.com Contact us | Privacy policy | DMCA | Add/correct tabs | Request tabs | Top 50 tabs