» » »

Papa Roach, Never Enough Bass tabs (ver.1)

Artists:  A B C D E F G H I J K L M N O P Q R S T U V W X Y Z # 

Never Enough Bass tabs (ver.1)

Papa Roach Tabs
 Rating:
4/5 (4 votes)
Never Enough lessons Tabs too difficult? Try these video lessons and learn fast
                

I have sectioned off all the parts of the song and after that there are the 
directions that give the order and number of repetitions to play them (if needed).

The tuning for this song is strange. Start with a 'dropped D' tuning. Then tune 
ALL the strings down 3 half-steps. This will give you the notes you see listed 
next to section (A).

  (A)
E ------------------------|
B ------------------------|
Gb------------------------|
B -----3-------3------2-5-|

 (B)
---------------------------------------------------------|
---------------------------------------------------------|
--0--0----0------0--0----0------0--0----0------0--0------|
-------------------------------------------------------3-|

 (C) variation 1
--------------------------------------------------------------|
--------------------------------------------------------------|
--5--5----5------5--5----5------5--5----5------5--5----5------|
--------------------------------------------------------------|

 (C) variation 2
-------------------------------------------|
--------------------h----------------------|    * 'h' means hammer on
--5--5----5-5------020---5-5----5-5--------|
--------------0---------------------0------|

 (D) Chorus
---------------|
---------------|
--0-3-0-2-0----|
------------3--|

 (E)
------------------------------|
------------------------------|
--000--333--222--333--55--33--|
------------------------------|

 (F)
-------------------------------------------------|
-------------------------------------------------|   * the '101010...' is ten
--7777777777777777-101010101010101010------------|     repeated over and over
---------------------------------------5---------|     (just in case you were
                                                       wondering)
 (G)
---------------------|
---------------------|
---------------------|
--3------3-2---------|


Directions:

 A 4 times
 B 2 times
 B 2 times
 C 2 times
 B 2 times
 C 2 times
 D 16 times
 A 4 times
 A 5.5 times ?
 E 4 times
 F 1 time
 D 16 times
 G 1 time


If there are any mistakes please let me know. I didn't proofread all that much.
            
Submit corrections

comments powered by Disqus
↑ Back to top | Papa Roach Bass for Never Enough. Lyrics for acoustic guitar and electric guitar. Tablatures and chords are parodies/interpretations of the original songs. You may use it for private study, scholarship, research or language learning purposes only