» » »

Infest Tabs (ver.2)

Artists:  A B C D E F G H I J K L M N O P Q R S T U V W X Y Z # 

Infest Tabs (ver.2)

Papa Roach
Rating:
0/5 (0 votes)

Tabs too difficult? Try these video lessons and learn fast.
                Hey hope you like it
it might not be 100% right but it sounds good

Drop D tuning



-------------------------55---------------------------------------------------
-------------------------55---------------------------------------------------
--00---77--33--77---22---33---------------------------------------------------
--00---77--33--77---22--------------------------------------------------------
                                                                              
--------15----15-------15-----10---10-----10----------------------------------
-----12----------12---------7---------7---------------------------------------
--12-------12-------12----7------7------7-------------------------------------
  p.m.------------p.m.all----------------p.m.


-----10-10--------10--10--------10-10-----------------------------------------
------x--x---------x---x---------x--x-----------------------------------------
-00---8--8--0-000--8---8--0-000--8--8-----------------------------------------
-00---------0-000---------0-000-----------------------------------------------
                                                                              
some sorta effect
----------------------------------------------------------9-------------------
------15--15----------15-15--------15-15----------15-----10-------------------
-0-0--12--12--0-0-0-0-12-12--0-0-0-12-12--0-0-0-0-12-0-0----------------------
-0-0--12--12--0-0-0-0-12-12--0-0-0-12-12--0-0-0-0-12-0-0----------------------
 p.m.         -p.m. -       -p.m.-        -p.m. -    p.m.                     

-------------------------------|----------------------------------------------
-------------------------------|----------------------------------------------
-------------------------------|----------------------------------------------
-------------------------------|----------------------------------------------
-77777777--9999--10-10-10-10---|--77777777-2222-3333--------------------------
-77777777--9999--10-10-10-10---|--77777777-2222-3333--------------------------
                                                                              

----10-10-10-10-----10-10-10-10-----10-10-10-10----12-10-12-------------------
-----x--x--x--x------x--x--x--x------x--x--x--x-----x--x--x-------------------
-00--8--8--8--8--00--8--8--8--8--00--8--8--8--8-00-10--8-10-------------------
-00--------------00--------------00-------------00----------------------------
                                                                              
                        you can play this 2 ways
------------------------------------|-----------------------------------------
------------------------------------|-----------------------------------------
-----5-5-5-5-----5-5-5-5----5-5-5-5-|--2-2--5-5-5-5--2-2--5-5-5-5-------------
-----x-x-x-x-----x-x-x-x----x-x-x-x-|--2-2--x-x-x-x--2-2--x-x-x-x-------------
-77--3-3-3-3-77--3-3-3-3-77-3-3-3-3-|--0-0--3-3-3-3--0-0--3-3-3-3-------------
-77----------77----------77---------|-----------------------------------------
            
Tabs too difficult? Try these video lessons and learn fast.


comments powered by Disqus
↑ Back to top | Tablatures and chords are parodies/interpretations of the original songs. You may use it for private study, scholarship, research or language learning purposes only