» » »

Papa Roach, Infest Bass tabs (ver.1)

Artists:  A B C D E F G H I J K L M N O P Q R S T U V W X Y Z # 

Infest Bass tabs (ver.1)

Papa Roach Tabs
Rating:
0/5 (0 votes)
Infest lessons Tabs too difficult? Try these video lessons and learn fast
                Intro:
G|----------------------------------------|
D|----------7-7---------------------------|   X2
A|----5-5--------8-8--0-0---7-7--3-3------|
E|----------------------------------------|



G|---------------------------------------------------|
D|---------------------------------------------------|   X1
A|---------------------------------------------------|
E|--5-5-5---0-5-5-5-5---0-5-5-5---0-5-5-5-5----------|


Vers:
G|---------------------------------------------------|
D|---------------------------------------------------|    X2
A|---------------------------------------------------|
E|--5-5---5-5-5-5---5-5-5-5---5-5-5-5---5-3-3--------|

G|--------------------------------------------------|
D|--------------------------------------------------|   X1
A|--5-5---5-5-5-5---5-5-5-5---5-5-5-5---5-3---------|
E|--------------------------------------------------|

G|-------------------------------------------------------|
D|-------------------------------------------------------|   X1
A|--5-5---5-5-5-5---5-5-5-5---5-5-5-5---5-3-3-3-3-3-5-5--|
E|-------------------------------------------------------|

G|--------------------------------------------------|
D|--------------------------------------------------|   X2
A|--5-5---5-5-5-5---5-5-5-5---5-5-5-5---5-3---------|
E|--------------------------------------------------|


Pre Chorus:
G|-----------------------------------|
D|-----------------------------------|   X4
A|--0-0-0-0-0-0-0-0-2-2-2-2-3-3-3-3--|
E|-----------------------------------|


Chorus:
G|------------------------------------------------------------------|
D|------------------------------------------------------------------|   X2
A|--5-5---5-5---5-5---5-5-8-5-3-0-3-3---3-3-3-3---3-3---3-3-5-3-0---|
E|------------------------------------------------------------------|


2nd Vers:
G|---------------------------------------------------|
D|---------------------------------------------------|
A|---------------------------------------------------|   X1
E|--5-5---5-5-5-5---5-5-5-5---5-5-5-5---5-3-3--------|

G|-----------------------------------------------------|
D|-----------------------------------------------------|   X1
A|--------------------------------------------5-5-5-5--|
E|--5-5---5-5-5-5---5-5-5-5---5-5-5-5---5-3-3----------|


G|--------------------------------------------------|
D|--------------------------------------------------|   X1
A|--5-5---5-5-5-5---5-5-5-5---5-5-5-5---5-3---------|
E|--------------------------------------------------|

G|-------------------------------------------------------|
D|-------------------------------------------------------|   X1
A|--5-5---5-5-5-5---5-5-5-5---5-5-5-5---5-3--5-5--5-5----|
E|-------------------------------------------------------|

G|--------------------------------------------------|
D|--------------------------------------------------|   X2
A|--5-5---5-5-5-5---5-5-5-5---5-5-5-5---5-3---------|
E|--------------------------------------------------|


Pre Chorus: X4

Chorus: X2


During Guitar Solo:
G|--------------------|
D|--------------------|
A|----7\1-------------|
E|--5-----3-3-2-2-----|

G|-------------|
D|-------------|   X4
A|-------------|
E|--0---3-3----|

G|----------------------|
D|----------------------|   X3
A|----------------------|
E|--3-2-3-2---3-0--3-3--|

G|-----------------|
D|-----------------|
A|-----------------|
E|--3-2-3-2---3-3--|


Then Play This:
G|-----------------------------------------|
D|-----------------------------------------|   X3
A|--5-5---5-5--5-8-5-0-3-3---3-3--3-5-3-0--|
E|-----------------------------------------|

G|---------------------------------------------|
D|---------------------------------------------|
A|--5-5---5-5--5-8-5-0-3-3---/8-8-8-8-5-5-5-5--|
E|---------------------------------------------|


Chorus: X2


End:
G|-------------------------------|
D|-------------------------------|
A|---------------------/8-8-8-8--|
E|--3-3--3-3--3-3--3-3-----------|
            

comments powered by Disqus
↑ Back to top | Papa Roach Bass for Infest. Lyrics for acoustic guitar and electric guitar. Tablatures and chords are parodies/interpretations of the original songs. You may use it for private study, scholarship, research or language learning purposes only