>
 >
Hollywood Whore 2

Hollywood Whore 2 Bass Tabs

Papa Roach - Hollywood Whore 2 chords, tabs, tablatures, lyrics

Guitar lessons | Add/correct | Request | Top 50 tabs Artists:  A B C D E F G H I J K L M N O P Q R S T U V W X Y Z 0-9

Hollywood Whore 2 Bass Tabs – Papa Roach

CD, Sheet music, Poster

Do you like Hollywood Whore 2? Share with your friends now
Bass TabsBass Tabs v2ChordsDrum TabsTabsTabs v2Ukulele
-------------------------------------------------------------------------------
Hollywood Whore  Papa Roch
-------------------------------------------------------------------------------


Tuning: Drop D (fingers are used for this song)

G---------------------------------------|
D---------------------------------------|
A--3-3---2-2-----3-3--2-2---------------|
D---------------------------------------|

Verse-

G-------------------------------------------|
D-------------------------------------------|
A--\15/-3-3--2-2--3-3--2-2--------3--5-3-2--|
D----------------------------------5--------|

G------------------------------------|
D------------------------------------|
A--3-3---2-2---3-3--2-2--------------|
D------------------------------------|

Pre Chorus

G---------------------------------------|
D---------------------------------------|
A---------------------------------------|
D--/-6-6---6-6---5-5--5-5---------------|

Chorus x2    

G-------------------------------------------------|
D-------------------------------------------------|
A--3333333333333333-------------------------------|
D-------------------------------5555555555555555--|

G---------------------------------------------|
D---------------------------------------------|
A---------------------------------------------|
D-6666666666666666-33333333-55555555----------|

Repeat Pre-verse

Verse 2

G-----------------------------------------------------|
D-----------------------------------------------------|
A-3-\15/-3-3--2-2--3-3--2-2---------------------------|
D-----------------------------------------------------|

G-----------------------------------------------------|
D-----------------------------------------------------|
A--3-3---2-2-2\15/--3-3--2-2-------------------------|
D-----------------------------------------------------|

Repeat Pre-Chorus
Repeat Chorus
Bridge

G----------------------------------------------------|
D----------------------------------------------------| X2
A--6-6-6-6-6-6-6-6-----------------------------------|
D-------------------------5-5-5-5-5-5-5-5------------|

G----------------------------------------------------|
D----------------------------------------------------|X2
A-------------------------------3-3-3-3--1-1-1-1-----|
D--6-6-6-6-6-6-6-6-6---------------------------------|

G-------------------------------------------------|
D-------------------------------------------------|
A-------------------------------------------------|
D-6-6-6-6-6-6-6-6--5-5-5-5-5-5-5-5--3-3-3-3---0~--|

Calm Part

G-------------------------------------------------|
D-------------------------------------------------|
A-15/-3-2-1---------------------------------------|
D-----------6-5-----------------------------------|

G-------------------------------------------------------|
D-------------------------------------------------------|
A-3-3-3-3-3-3-3--8--5-5-5-5-5-5-5--10--8-8-8-8-8-8-8-8--|
D-------------------------------------------------------|

Repeat Chorus

Breakdown
G---------------------------------------------------------|
D---------------------------------------------------------|
A--33333333--5-5-5-5-5-5-5-5--6-6-6-6-6-6-6-6-------------|
D----------------------------------------------3333-5555--|

G--------------------------------------------------------|
D--------------------------------------------------------|
A--33336655-------------8855---6666-10-6----------------|
D-----------------5555---------------------3-3-5-5-------|

End song-listen for the timing for the slides
G--------------------------------------------|
D--------------------------------------------|
A-----3-3-----2-2---3-3-------2-2----\15/3-3-|
D-17/-----17/------------/-/-----------------|

| /  slide up
| \  slide down
| h  hammer-on
| p  pull-off
| ~  vibrato
| +  harmonic
| x  Mute note
===============================================================================





Comments


Popular Papa Roach tabs & chords
Dead Cell Bass Tabs
Infest 2 Bass Tabs
Prlastresort Bass Tabs
Thrown Away 5-Strings Bass Tabs
To Be Loved Chords
Life Is A Bullet 4 Tabs
M-80 Tabs
March Out Of The Darkness Tabs
Never Enough Tabs
She Loves Me Not Tabs


Song lyrics



↑ Back to top | Tablatures and chords are parodies/interpretations of the original songs. You may use it for private study, scholarship, research or language learning purposes only
© 2014 AZChords.com Contact us | Privacy policy | DMCA | Add/correct tabs | Request tabs | Top 50 tabs