» » »

Papa Roach, Hollywood Whore Tabs (ver.1)

Artists:  A B C D E F G H I J K L M N O P Q R S T U V W X Y Z # 

Hollywood Whore Tabs (ver.1)

Papa Roach Tabs
Rating:
0/5 (0 votes)
Hollywood Whore lessons Tabs too difficult? Try these video lessons and learn fast
                -------------------------------------------------------------------------------
-------------------------------------------------------------------------------

I wasn't sure whether this was played in Drop D or C, but decided that it must be
D and it sounded so heavy because of the Bass Guitar.

Anyways, good song, going on this the album will be awesome!! Any corrections
put in the comments and I'll update whenever. Some parts I'm not sure about, but
it's something to work with :)

UPDATE: 10/30/08 - Thanks to Drosophila for corrections to the Intro :)

Tuning: Drop D (DADGBe)

Intro Part 1
e|---------------------------------------------------------------------------|
B|--------8-----------6----------6--------6-------8--------------------------|
G|---8------------8----------8----------8---8---7----------------------------|
D|10---10-------9---9------8---8------6-------5------------------------------|
A|---------------------------------------------------------------------------|
D|---------------------------------------------------------------------------|

Intro Part 2
e|---------------------------------------------------------------------------|
B|---------------------------------------------------------------------------|
G|5-5--5h7p5h7--8p9-5h7-5h7h8p5---4-4--4h5p4h5--8p5-4h5-4h5h8p5--------------|
D|5-5-----------------------------5-5----------------------------------------|
A|3-3-----------------------------2-2----------------------------------------|
D|-----------------------------------------------------------------x2--------|


Verse
e|---------------------------------------------------------------------------|
B|---------------------------------------------------------------------------|
G|5-5----------4-4--------5-5-----x-4-4------5-5-----x-4-4------5-5-----x-4-4|
D|5-5------x-x-5-5--------5-5-----x-5-5------5-5-----x-5-5------5-5-----x-5-5|
A|3-3------x-x-2-2--------3-3-----x-2-2------3-3-----x-2-2------3-3-----x-2-2|
D|---------------------------------------------------------------------------|


e|---------------------------------------------------------------------------|
B|---------------------------------------------------------------------------|
G|---------------------------------------------------------------------------|
D|6-6-5h6p5-6-6-3h5p3-5-5---------5-5----------------------------------------|
A|6-6-------6-6-------5-5-5-5-5-5-5-5-5-5-5-5--------------------------------|
D|6-6-------6-6-------5-5---------5-5----------------------------------------|


Chorus
e|---------------------------------------------------------------------------|
B|---------------------------------------------------------------------------|
G|5-5-5-5-5-5-5-5-5-5-5-5-5-5-5-5--------------------------------------------|
D|5-5-5-5-5-5-5-5-5-5-5-5-5-5-5-5-5-5-5-5-5-5-5-5-5-5-5-5-5-5-5-5------------|
A|3-3-3-3-3-3-3-3-3-3-3-3-3-3-3-3-5-5-5-5-5-5-5-5-5-5-5-5-5-5-5-5------------|
D|--------------------------------5-5-5-5-5-5-5-5-5-5-5-5-5-5-5-5------------|

e|---------------------------------------------------------------------------|
B|---------------------------------------------------------------------------|
G|---------------------------------------------------------------------------|
D|6-6-6-6-6-6-6-6-6-6-6-6-6-6-6-6-3-3-3-3-3-3-3-3-5-5-5-5-5-5-5-5------------|
A|6-6-6-6-6-6-6-6-6-6-6-6-6-6-6-6-3-3-3-3-3-3-3-3-5-5-5-5-5-5-5-5------------|
D|6-6-6-6-6-6-6-6-6-6-6-6-6-6-6-6-3-3-3-3-3-3-3-3-5-5-5-5-5-5-5-5------------|

Repeat Intro Part 2


Verse 2
e|---------------------------------------------------------------------------|
B|---------------------------------------------------------------------------|
G|5-5------x-4-4--------5-5------x-4-4--------------------------5-5-----x-4-4|
D|5-5------x-5-5--------5-5------x-5-5-5-5-5-5-5-5-5-5-5-5-5-5--5-5-----x-5-5|
A|3-3------x-2-2--------3-3------x-2-2-2-2-2-2-2-2-2-2-2-2-2-2--3-3-----x-2-2|
D|---------------------------------------------------------------------------|
                                       PM--------------------|

e|---------------------------------------------------------------------------|
B|---------------------------------------------------------------------------|
G|-------5-5------x-4-4------------------------------------------------------|
D|-------5-5------x-5-5-------------6-6-5h6p5-6-6-3h5p3----------------------|
A|-------3-3------x-2-2-------------6-6-------6-6-------5-5-5-5-5-5-5-5-5-5-5|
D|-----------------------------17\--6-6-------6-6----------------------------|
                                                        PM-------- - -|

Repeat Chorus


Bridge
e|---------------------------------------------------------------------------|
B|---------------------------------------------------------------------------|
G|-8--8--8--8--8--8--8--8----------------------------------------------------|
D|-8--8--8--8--8--8--8--8--5--5--5--5--5--5--5--5----------------------------|
A|-6--6--6--6--6--6--6--6--5--5--5--5--5--5--5--5----------------------------|
D|-------------------------5--5--5--5--5--5--5--5------------x2--------------|

e|---------------------------------------------------------------------------|
B|---------------------------------------------------------------------------|
G|------------------------5--5--5--5--3--3--3--3-----------------------------|
D|6--6--6--6--6--6--6--6--5--5--5--5--3--3--3--3-----------------------------|
A|6--6--6--6--6--6--6--6--3--3--3--3--1--1--1--1-----------------------------|
D|6--6--6--6--6--6--6--6-------------------------------------x2--------------|

e|---------------------------------------------------------------------------|
B|---------------------------------------------------------------------------|
G|---------------------------------------------------------------------------|
D|6--6--6--6--6--6--6--6--5--5--5--5---8---8---8---8-------------------------|
A|6--6--6--6--6--6--6--6--5--5--5--5---8---8---8---8-------------------------|
D|6--6--6--6--6--6--6--6--5--5--5--5---8---8---8---8-------------------------|


Repeat Intro Part 1 x 2

e|---------------------------------------------------------------------------|
B|--------8------8-----------6-----6-----------6-----6-----------------------|
G|---8------8------8-----8-----8-----8-----8-----8-----8---------------------|
D|10---10-----10-------9---9-----9-------8---8-----8-------------------------|
A|---------------------------------------------------------------------------|
D|---------------------------------------------------------------------------|

Repeat Chorus


e|---------------------------------------------------------------------------|
B|---------------------------------------------------------------------------|
G|5--5--5--5--5--5--5--5-----------------------------------------------------|
D|5--5--5--5--5--5--5--5--5--5--5--5--5--5--5--5--6--6--6--6--6--6--6--6-----|
A|3--3--3--3--3--3--3--3--5--5--5--5--5--5--5--5--6--6--6--6--6--6--6--6-----|
D|------------------------5--5--5--5--5--5--5--5--6--6--6--6--6--6--6--6-----|
  

e|---------------------------------------------------------------------------|
B|---------------------------------------------------------------------------|
G|------------------------5--5--5--5--5--5--5--5-----------------------------|
D|3--3--3--3--5--5--5--5--5--5--5--5--5--5--5--5--5--5--5--5--5--5--5--5-----|
A|3--3--3--3--5--5--5--5--3--3--3--3--3--3--3--3--5--5--5--5--5--5--5--5-----|
D|3--3--3--3--5--5--5--5--------------------------5--5--5--5--5--5--5--5-----|

e|---------------------------------------------------------------------------|
B|---------------------------------------------------------------------------|
G|---------------------------------------------------------------------------|
D|6--6--6--6--6--6--6--6--3----3----5----------------------------------------|
A|6--6--6--6--6--6--6--6--3----3----5----------------------------------------|
D|6--6--6--6--6--6--6--6--3----3----5----17\---------------------------------|

Repeat Intro Part 2

Ending On
e|---------------------------------------------------------------------------|
B|---------------------------------------------------------------------------|
G|5-5------------------------------------------------------------------------|
D|5-5------------------------------------------------------------------------|
A|3-3------------------------------------------------------------------------|
D|---------------------------------------------------------------------------|

| \     slide down
| h     hammer-on
| p     pull-off
| PM-|  palm mute
| x     mute note
===============================================================================
            

comments powered by Disqus
↑ Back to top | Papa Roach Tabs for Hollywood Whore. Lyrics for acoustic guitar and electric guitar. Tablatures and chords are parodies/interpretations of the original songs. You may use it for private study, scholarship, research or language learning purposes only