>
 >
Forever 2

Forever 2 Bass Tabs

Papa Roach - Forever 2 chords, tabs, tablatures, lyrics

Guitar lessons | Add/correct | Request | Top 50 tabs Artists:  A B C D E F G H I J K L M N O P Q R S T U V W X Y Z 0-9

Forever 2 Bass Tabs – Papa Roach

CD, Sheet music, Poster

Do you like Forever 2? Share with your friends now
Bass TabsBass Tabs v2Bass Tabs v3Bass Tabs v4ChordsChords v2Chords v3TabsTabs v2Tabs v3Tabs v4Tabs v5UkuleleUkulele v2
This is my first tab and it sounds correct to me so if its not please let me know.

Intro/Verse
0:00                                                 In the brightest hour...
G|-----------------------------------||-----------------------------------|
D|-----------------------------------||-----------------------------------|
A|55555555-88888888-33333333-11111111||55555555-88888888-33333333-11111133|
D|-----------------------------------||-----------------------------------|

G|-----------------------------------||-----------------------------------|
D|-----------------------------------||-----------------------------------|
A|55555557-88888888-33333333-11111111||55555555-88888888-33333333-11111133|
D|-----------------------------------||-----------------------------------|

G|-----------------------------------|
D|-----------------------------------|
A|55555555-88888888-33333333-11111111|
D|-----------------------------------| X1

Chorus  0:55
G|-----------------------------------||-----------------------------------|
D|-----------------10-10-1010--8-8-88||-----------------10-10-1010--8-8-88|
A|5-5-555--8-8-888-------------------||5-5-555--8-8-888-------------------|
D|-----------------------------------||-----------------------------------|X1

G|---------|
D|---------|
A|8--7--5--|
D|---------|X1

Verse X1

Chorus X1

2:26
One last kiss...
G|------------------||------------------||------------------||------------------|
D|------------------||------------------||------------------||------------------|
A|8--7--555555555555||7--8--333333333333||8--7--111111111111||7--8--333333333333|
D|------------------||------------------||------------------||------------------|X2

Chorus X1

Outro 3:45
G|-----------------------------------||-----------------------------------|
D|-----------------------------------||--------------------------------12-|
A|55555555-88888888-33333333-11111111||55555555-88888888-33333333-11111---|
D|-----------------------------------||----------------------------------0|





Comments


Popular Papa Roach tabs & chords
Gouge Away 2 Bass Tabs
Between Angels And Insects 1 Tabs
Dead Cell 1 Tabs
Harder Than A Coffin Nail Tabs
Hollywood Whore 1 Tabs
No Matter What 3 Tabs
Not Listening 1 Tabs
Still Swingin Tabs
Sweet Emotion Tabs
Thrown Away 2 Tabs


Song lyrics



↑ Back to top | Tablatures and chords are parodies/interpretations of the original songs. You may use it for private study, scholarship, research or language learning purposes only
© 2014 AZChords.com Contact us | Privacy policy | DMCA | Add/correct tabs | Request tabs | Top 50 tabs