>
 >
Forever

Forever Bass Tabs

Papa Roach - Forever chords, tabs, tablatures, lyrics

Guitar lessons | Add/correct | Request | Top 50 tabs Artists:  A B C D E F G H I J K L M N O P Q R S T U V W X Y Z 0-9

Forever Bass Tabs – Papa Roach

CD, Sheet music, Poster

Do you like Forever? Share with your friends now
Bass TabsBass Tabs v2Bass Tabs v3Bass Tabs v4ChordsChords v2Chords v3TabsTabs v2Tabs v3Tabs v4Tabs v5UkuleleUkulele v2
Band: Papa Roach
Tuning: EADG

This is a pretty cool song, and all you have to do is just listen for the right
timing and enjoy this great song! Here we go:

Intro: (00:00)
G|-----------------|-----------------|-----------------|
D|-----------------|-----------------|-----------------|
A|-5-5-5-5-5-5-5-5-|-8-8-8-8-8-8-8-8-|-----------------|
E|-----------------|-----------------|-8-8-8-8-8-8-8-8-|
                                                          
G|-----------------|
D|-----------------|
A|-----------------|
E|-6-6-6-6-6-6-6-6-|

G|-----------------|-----------------|-----------------|
D|-----------------|-----------------|-----------------|
A|-5-5-5-5-5-5-5-5-|-8-8-8-8-8-8-8-8-|-----------------|
E|-----------------|-----------------|-8-8-8-8-8-8-8-8-|
                                                          
G|-----------------|
D|-----------------|
A|-----------------|
E|-6-6-6-6-6-6-8-8-|

Verse 1: (00:17)
G|-----------------|-----------------|-----------------|
D|-----------------|-----------------|-----------------|
A|-5-5-5-5-5-5-5-5-|-8-8-8-8-8-8-8-8-|-----------------|
E|-----------------|-----------------|-8-8-8-8-8-8-8-8-|
                         
G|-----------------|
D|-----------------|
A|-----------------|       x5
E|-6-6-6-6-6-6-6-6-|

Chorus: (01:01)
G|----------|----------|--------------|----------|
D|----------|----------|-10--10-10-10-|-8--8-8-8-|
A|-5--5-5-5-|-8--8-8-8-|--------------|----------| x2
E|----------|----------|--------------|----------|

Fill: (01:18)
G|-------|-----------------|-----------------|
D|-------|-----------------|-----------------|
A|-8-7-5-|-5-5-5-5-5-5-5-5-|-8-8-8-8-8-8-8-8-|
E|-------|-----------------|-----------------|

G|-----------------|-----------------|
D|-----------------|-----------------|
A|-----------------|-----------------|
E|-8-8-8-8-8-8-8-8-|-6-6-6-6-6-6-8-8-|

Verse 2: (01:29)
G|-----------------|-----------------|-----------------|
D|-----------------|-----------------|-----------------|
A|-5-5-5-5-5-5-5-5-|-8-8-8-8-8-8-8-8-|-----------------|
E|-----------------|-----------------|-8-8-8-8-8-8-8-8-|
                                                               
G|-----------------|
D|-----------------|
A|-----------------|      x5
E|-6-6-6-6-6-6-6-6-|

Chorus: (02:12)
G|----------|----------|--------------|----------|
D|----------|----------|-10--10-10-10-|-8--8-8-8-|
A|-5--5-5-5-|-8--8-8-8-|--------------|----------| x2
E|----------|----------|--------------|----------|

Bridge 1: (02:30)
G|---------------------|---------------------|
D|---------------------|---------------------|
A|-8-7-5-5-5-5-5-5-5-5-|-8-7-----------------|
E|---------------------|-----8-8-8-8-8-8-8-8-|
                                                 x2
G|---------------------|---------------------|
D|---------------------|---------------------|
A|-8-7-----------------|-8-7-----------------|
E|-----6-6-6-6-6-6-6-6-|-----3-3-3-3-3-3-5-5-|

Chorus: (03:07)
G|----------|----------|--------------|----------|
D|----------|----------|-10--10-10-10-|-8--8-8-8-|
A|-5--5-5-5-|-8--8-8-8-|--------------|----------| x2
E|----------|----------|--------------|----------|

Bridge 2: (03:23)
G|---------------------|-----------------|-----------------|
D|---------------------|-----------------|-----------------|
A|-8-7-5-5-5-5-5-5-5-5-|-8-8-8-8-8-8-8-8-|-----------------|
E|---------------------|-----------------|-8-8-8-8-8-8-8-8-|

G|-----------------|---------------------|-----------------|
D|-----------------|---------------------|-----------------|
A|-----------------|-8-7-5-5-5-5-5-5-5-5-|-8-8-8-8-8-8-8-8-|
E|-6-6-6-6-6-6-6-6-|---------------------|-----------------|

G|-----------------|-----------------|
D|-----------------|-----------------|
A|-----------------|-----------------|
E|-8-8-8-8-8-8-8-8-|-6-6-6-6-6-6-6-6-|

Outro: (03:41)
G|---------------------|-----------------|-----------------|
D|---------------------|-----------------|-----------------|
A|-8-7-5-5-5-5-5-5-5-5-|-8-8-8-8-8-8-8-8-|-----------------|
E|---------------------|-----------------|-8-8-8-8-8-8-8-8-|

G|-----------------|-----------------|-----------------|
D|-----------------|-----------------|-----------------|
A|-----------------|-5-5-5-5-5-5-5-5-|-8-8-8-8-8-8-8-8-|
E|-6-6-6-6-6-6-6-6-|-----------------|-----------------|

G|-----------------|-----------------|-10-9-7-|
D|-----------------|-----------------|--------|
A|-----------------|-----------------|-8--7-5-|
E|-8-8-8-8-8-8-8-8-|-6-6-6-6-6-6-6-6-|--------|

Thomas Lundesgaard, Norway





Comments


Popular Papa Roach tabs & chords
Change Or Die Bass Tabs
Last Resort 3 Bass Tabs
Lifeline 1 Chords
Last Resort 3 Drum Tabs
829 1 Tabs
Between Angels And Insects 10 Tabs
Crash Tabs
Silence Is The Enemy Tabs
Stop Looking Start Seeing 1 Tabs
Time Is Running Out Tabs


Song lyrics



↑ Back to top | Tablatures and chords are parodies/interpretations of the original songs. You may use it for private study, scholarship, research or language learning purposes only
© 2014 AZChords.com Contact us | Privacy policy | DMCA | Add/correct tabs | Request tabs | Top 50 tabs