» » »

Papa Roach, Decompression Period- Tabs (ver.1)

Artists:  A B C D E F G H I J K L M N O P Q R S T U V W X Y Z # 

Decompression Period- Tabs (ver.1)

Papa Roach Tabs
Rating:
0/5 (0 votes)
Decompression Period- lessons Tabs too difficult? Try these video lessons and learn fast
                Track Title: Decompression Period
Album Title: LoveHateTragedy

This was Ben Knight's original tab, but he was off on two riffs, so here's the perfect version!!!

Drop-Db (Db, Ab, Db, Gb, Bb, Eb)

--------------------------|---------------------------------------------------
--------------------------|---------------------------------------------------
------3---2h3-------------|---------------------------------0-----------------
--------------------------|--------3-5------5-7------3------------------------
---5----5-----5-----------|------1--------3--------0-----1--------------------
-5--------------5-4-------|--4\1--------3--------0-----1----------------------
 Intro/Verse                                                                  

-------------------------------3----------------------------------------------
------------------------3--------3--------------------------------------------
----------------------3---3--------3-------3----x-7h8-----x-7h8---------------
-5--6--3--5--3------1-------1------------0------x-7h8-8---x-7h8-8-------------
-------------3----1------------------4\0--------x-7h8-0---x-7h8-0-------------
                                                                              

------------------7-8-5-7-----------------------------------------------------
-5--5--5-5-5-5-4--x-x-x-x-3---1-1-1-1-1-1-1-1-1-1-1-1-1-1-1-1-0-0-0-0-0-0-0-0-
-5--5--5-5-5-5-4--5-6-3-5-3---1-1-1-1-1-1-1-1-1-1-1-1-1-1-1-1-0-0-0-0-0-0-0-0-
-5--5--5-5-5-5-4----------3---1-1-1-1-1-1-1-1-1-1-1-1-1-1-1-1-0-0-0-0-0-0-0-0-
 Chorus Pt. 1                                                                 

-x-7h8-0-xx-3-xx-3------------------------------------------------------------
-x-7h8-0-xx-3-xx-3------------------------------------------------------------
-x-7h8-0-xx-3-xx-3------------------------------------------------------------
                                                                              

-7-xxx7-xxx6-xxx6-xxx5-xxx5-xxx3-xxx0--7-xxx7-xxx10-xxx10-xxx12-xxx12-xxx----- <---my correction
-5-xxx5-xxx4-xxx4-xxx3-xxx3-xxx1-xxx0--5-xxx5-xxx8--xxx8--xxx10-xxx10-xxx-----
-5-xxx5-xxx4-xxx4-xxx3-xxx3-xxx1-xxx0--5-xxx5-xxx8--xxx8--xxx10-xxx10-xxx-----
 Chorus Pt. 2                                                                 

-13-13-13-13-13-13-13-13-12-12-12-12-12-12-12-12--5~~~------------------------
-13-13-13-13-13-13-13-13-12-12-12-12-12-12-12-12--5~~~------------------------
-13-13-13-13-13-13-13-13-12-12-12-12-12-12-12-12--5~~~------------------------
 End of Chorus 2, right before 2nd verse.  

-7-7777-6666-6666-5555-5555-3333-0000--7-7777-10101010-10101010-12121212-12121212-121212 <----my correction
-5-5555-4444-4444-3333-3333-1111-0000--5-5555-8-8-8-8--8-8-8-8--10101010-10101010-101010
-5-5555-4444-4444-3333-3333-1111-0000--5-5555-8-8-8-8--8-8-8-8--10101010-10101010-101010
Pre-Solo (same as chorus pt.2 without palm muting)                                

-3-5-7--5--3--5----3-5-7--5--3--5----3-5-7--5--7-8-7-8-10-8--10--12v----------
 Solo Pt. 1                                                                   

----------13------------------------------------------------------------------
-12-15-12----15-12------------------------------------------------------------
 Solo Pt. 2
            

comments powered by Disqus
↑ Back to top | Papa Roach Tabs for Decompression Period-. Lyrics for acoustic guitar and electric guitar. Tablatures and chords are parodies/interpretations of the original songs. You may use it for private study, scholarship, research or language learning purposes only