>
 >
Decompression Period- 1

Decompression Period- 1 Guitar Tabs

Papa Roach - Decompression Period- 1 chords, tabs, tablatures, lyrics

Guitar lessons | Add/correct | Request | Top 50 tabs Artists:  A B C D E F G H I J K L M N O P Q R S T U V W X Y Z 0-9

Decompression Period- 1 Guitar Tabs – Papa Roach

CD, Sheet music, Poster

Do you like Decompression Period- 1? Share with your friends now
TabsTabs v2Tabs v3
Jerry plays this in Drop - B (B F# B E G# C#)

--------------------------|---------------------------------------------------
--------------------------|---------------------------------------------------
--------------------------|--------------------------------------------------
------10---9h10-----------|--------5-7------7-9------5-----7-------------------
---7-----7------7---------|------3--------5--------2-----3--------------------
-7---------------7-6------|--6\3--------5--------2-----3----------------------
 Intro/Verse                                                                  

-------------------------------5-----------------------------------------------
--------------------------------5----------------------------------------------
------------------------5--------5------------4\5------4\5---------------------
----------------------3---3----------------5-4\5-5xxx-4\5-5-------------------
-7--8--5--7---------3-------3------------2----2\3-2xxx-2\3-2-------------------
-------------5\---3------------------3/2----------2xxx-----2-------------------
                                                                              

-------------------9-10-7-9------------------------------------------------------
-7-7-7-7-7-7-6-xx--x-x--x-x-5/---3-3-3-3-3-3-3-3-3-3-3-3-3-3-3-3-2-2-2-2-2-2-2-2-
-7-7-7-7-7-7-6-xx--7-8--5-7-5/---3-3-3-3-3-3-3-3-3-3-3-3-3-3-3-3-2-2-2-2-2-2-2-2-
-7-7-7-7-7-7-6-xx-----------5/---3-3-3-3-3-3-3-3-3-3-3-3-3-3-3-3-2-2-2-2-2-2-2-2-
 Chorus Pt. 1                                                                 





-x-9h10-2-xx-5-xx-5------------------------------------------------------------
-x-9h10-2-xx-5-xx-5------------------------------------------------------------
-x-9h10-2-xx-5-xx-5------------------------------------------------------------
                                                                              

-9xxxx9xxxx6xxxx6xxxx5xxxx5xxxx3xxxx2xxxx-9xxxx9xxxxx10xxxxx10xxxx12xxxx12xxxx
-7xxxx7xxxx6xxxx6xxxx5xxxx5xxxx3xxxx2xxxx-7xxxx7xxxxx10xxxxx10xxxx12xxxx12xxxx
-7xxxx7xxxx6xxxx6xxxx5xxxx5xxxx3xxxx2xxxx-7xxxx7xxxxx10xxxxx10xxxx12xxxx12xxxx
 Chorus Pt. 2                                                                 

-15-15-15-15-15-15-15-15-14-14-14-14-14-14-14-14--2---------------------------
-15-15-15-15-15-15-15-15-14-14-14-14-14-14-14-14--2---------------------------
-15-15-15-15-15-15-15-15-14-14-14-14-14-14-14-14--2---------------------------
 End of Chorus 2, right before 2nd verse.                                     

-5-7-9--7--5--7----5-7-9--7--5--7----5-7-9--7--9-10-9-10-12-10--12--14v-------
 Solo Pt. 1                                                                   

----------15------------------------------------------------------------------
-14-17-14----17-14------------------------------------------------------------
 Solo Pt. 2





Comments


Popular Papa Roach tabs & chords
Be Free 2 Bass Tabs
Between Angels And Insects 4 Bass Tabs
Blood Brothers 5 Bass Tabs
I Devise My Own Demise Chords
Scars 8 Chords
Burn Tabs
Code Of Energy 1 Tabs
Legacy 1 Tabs
Singular Indestructible Droid 1 Tabs
Time Is Running Out Ukulele


Song lyrics



↑ Back to top | Tablatures and chords are parodies/interpretations of the original songs. You may use it for private study, scholarship, research or language learning purposes only
© 2014 AZChords.com Contact us | Privacy policy | DMCA | Add/correct tabs | Request tabs | Top 50 tabs