» » »

Decompression Period- Tabs (ver.2)

Artists:  A B C D E F G H I J K L M N O P Q R S T U V W X Y Z # 

Decompression Period- Tabs (ver.2)

Papa Roach
Rating:
0/5 (0 votes)

Hard to play? Try these video lessons and learn fast.
                Jerry plays this in Drop - B (B F# B E G# C#)

--------------------------|---------------------------------------------------
--------------------------|---------------------------------------------------
--------------------------|--------------------------------------------------
------10---9h10-----------|--------5-7------7-9------5-----7-------------------
---7-----7------7---------|------3--------5--------2-----3--------------------
-7---------------7-6------|--6\3--------5--------2-----3----------------------
 Intro/Verse                                                                  

-------------------------------5-----------------------------------------------
--------------------------------5----------------------------------------------
------------------------5--------5------------4\5------4\5---------------------
----------------------3---3----------------5—-4\5-5xxx-4\5-5-------------------
-7--8--5--7---------3-------3------------2----2\3-2xxx-2\3-2-------------------
-------------5\---3------------------3/2----------2xxx-----2-------------------
                                                                              

-------------------9-10-7-9------------------------------------------------------
-7-7-7-7-7-7-6-xx--x-x--x-x-5/---3-3-3-3-3-3-3-3-3-3-3-3-3-3-3-3-2-2-2-2-2-2-2-2-
-7-7-7-7-7-7-6-xx--7-8--5-7-5/---3-3-3-3-3-3-3-3-3-3-3-3-3-3-3-3-2-2-2-2-2-2-2-2-
-7-7-7-7-7-7-6-xx-----------5/---3-3-3-3-3-3-3-3-3-3-3-3-3-3-3-3-2-2-2-2-2-2-2-2-
 Chorus Pt. 1                                                                 





-x-9h10-2-xx-5-xx-5------------------------------------------------------------
-x-9h10-2-xx-5-xx-5------------------------------------------------------------
-x-9h10-2-xx-5-xx-5------------------------------------------------------------
                                                                              

-9xxxx9xxxx6xxxx6xxxx5xxxx5xxxx3xxxx2xxxx-9xxxx9xxxxx10xxxxx10xxxx12xxxx12xxxx
-7xxxx7xxxx6xxxx6xxxx5xxxx5xxxx3xxxx2xxxx-7xxxx7xxxxx10xxxxx10xxxx12xxxx12xxxx
-7xxxx7xxxx6xxxx6xxxx5xxxx5xxxx3xxxx2xxxx-7xxxx7xxxxx10xxxxx10xxxx12xxxx12xxxx
 Chorus Pt. 2                                                                 

-15-15-15-15-15-15-15-15-14-14-14-14-14-14-14-14--2---------------------------
-15-15-15-15-15-15-15-15-14-14-14-14-14-14-14-14--2---------------------------
-15-15-15-15-15-15-15-15-14-14-14-14-14-14-14-14--2---------------------------
 End of Chorus 2, right before 2nd verse.                                     

-5-7-9--7--5--7----5-7-9--7--5--7----5-7-9--7--9-10-9-10-12-10--12--14v-------
 Solo Pt. 1                                                                   

----------15------------------------------------------------------------------
-14-17-14----17-14------------------------------------------------------------
 Solo Pt. 2
            
Hard to play? Try these video lessons and learn fast. | Correct




comments powered by Disqus
↑ Back to top | Tablatures and chords are parodies/interpretations of the original songs. You may use it for private study, scholarship, research or language learning purposes only