» » »

Papa Roach, Dead Cell Tabs (ver.1)

Artists:  A B C D E F G H I J K L M N O P Q R S T U V W X Y Z # 

Dead Cell Tabs (ver.1)

Papa Roach Tabs
 Rating:
4/5 (4 votes)
Dead Cell lessons Tabs too difficult? Try these video lessons and learn fast
1
                I worked this out by ear, but its very accurate.
Everything's there, listen to the song for an exact order. 

Drop D tuning, high-low: EBGDAD  

note, 's' stands for 'slide'
eg:
           
-----|
-----|
-----|
-4s5-|
-----|
-----|

Play the F# note with the third finger and immediately
slide to the G note. 
__________________________________

 E D E D E DD     E D E D E F#                  
----------------|-----------------
----------------|-----------------
----------------|-----------------
----------------|-----------------
-2-0-2-0-2-00---|-2-0-2-0-2H4-4---
-2-0-2-0-2-00---|-2-0-2-0-2H4-4---


 E D E D E DD     B      F#             
----------------|-----------------
----------------|-----------------
----------------|-----------------
----------------|-4---------------
-2-0-2-0-2-00---|-2------4--------
-2-0-2-0-2-00---|--------4--------

__________________________________

For this riff play the E chord with 
your first finger and the slides
with your third finger. Play the 
F# chord with your third finger 
also.

 E                E       E   F# 
----------------|-----------------
----------------|-----------------
----------------|-----------------
---4s5-5--------|---4s5-5---------
-2--------------|-2-------2---4---
-2--------------|-2-------2---4---
                         Dead Cell


 E                E       B   F#
----------------|-----------------
----------------|-----------------
----------------|-----------------
---4s5-5--------|---4s5-5-4-------
-2--------------|-2-------2---4---
-2--------------|-2-----------4---
__________________________________
            
Submit corrections

comments powered by Disqus
↑ Back to top | Papa Roach Tabs for Dead Cell. Lyrics for acoustic guitar and electric guitar. 1 Tablatures and chords are parodies/interpretations of the original songs. You may use it for private study, scholarship, research or language learning purposes only