» » »

Dead Cell Tabs (ver.3)

Artists:  A B C D E F G H I J K L M N O P Q R S T U V W X Y Z # 

Dead Cell Tabs (ver.3)

Papa Roach
Rating:
0/5 (0 votes)

Hard to play? Try these video lessons and learn fast.
                "Dead Cell"
    Papa Roach

D Tuning(DADGBe)

     RIFF 1:

    |-----------------------------------------------------------|
    |-----------------------------------------------------------|
    |-----------------------------------------------------------|
    |-2-0-2-0-2-2-0-2-0-2-0-2-2-0-2-0-2-0-2-2-0-2-0-4-0-4-5-5-0-|
    |-2-0-2-0-2-2-0-2-0-2-0-2-2-0-2-0-2-0-2-2-0-2-0-4-0-4-5-5-0-|
    |-2-0-2-0-2-2-0-2-0-2-0-2-2-0-2-0-2-0-2-2-0-2-0-4-0-4-5-5-0-|

     RIFF 2:

    |-----------------------------------------------------------|
    |-----------------------------------------------------------|
    |-----------------------------------------------4-4---------|
    |-2-0-2-0-2-2-0-2-0-2-0-2-2-0-2-0-2-0-2-2-0-2-0-4-4-5-5-5-0-|
    |-2-0-2-0-2-2-0-2-0-2-0-2-2-0-2-0-2-0-2-2-0-2-0-2-2-5-5-5-0-|
    |-2-0-2-0-2-2-0-2-0-2-0-2-2-0-2-0-2-0-2-2-0-2-0-----5-5-5-0-|

     RIFF 3:

    |-----------------------------------------------------|
    |-----------------------------------------------------|
    |-----------------------------------------------------|
    |-2-x-x-x-x-x-x-x-2-2-x-x-x-2-x-x-x-x-x-x-x-2-2-4/5-5-|
    |-2-x-x-x-x-x-x-x-2-2-x-x-x-2-x-x-x-x-x-x-x-2-2-4/5-5-|
    |-2-x-x-x-x-x-x-x-2-2-x-x-x-2-x-x-x-x-x-x-x-2-2-4/5-5-|

     RIFF 4:

    |---------------------------------------------------------|
    |---------------------------------------------------------|
    |---------------------------------------------4-4-4-------|
    |-2-x-x-x-x-x-x-x-2-2-x-x-x-2-x-x-x-x-x-x-x-2-4-4-4-5-5-5-|
    |-2-x-x-x-x-x-x-x-2-2-x-x-x-2-x-x-x-x-x-x-x-2-2-2-2-5-5-5-|
    |-2-x-x-x-x-x-x-x-2-2-x-x-x-2-x-x-x-x-x-x-x-2-------5-5-5-|

     RIFF 5:

    |----------------------------------------------|
    |----------------------------------------------|
    |-12--12-12---14--14-14---16--16-16--16--16-16-|
    |-12--12-12---14--14-14---16--16-16--16--16-16-|
    |-10--10-10---12--12-12---14--14-14--14--14-14-|
    |----------------------------------------------|

     RIFF 6:

    |-------------|
    |-------------|
    |-------------|
    |-2---4/5-5-5-|
    |-2-----------|
    |-2-----------|

     RIFF 7:

    |---------------|
    |---------------|
    |---------------|
    |-2---4/5-5-4-0-|
    |-2-------------|
    |-2-------------|

     RIFF 8:

    |-----------------------------|
    |-----------------------------|
    |-----------------------------|
    |-2-2-----2-2-----2-2-----2-2-|
    |-2-2-----2-2-----2-2-----2-2-|
    |-2-2-----2-2-----2-2-----2-2-|
            
Hard to play? Try these video lessons and learn fast. | Correct




comments powered by Disqus
↑ Back to top | Tablatures and chords are parodies/interpretations of the original songs. You may use it for private study, scholarship, research or language learning purposes only