>
 >
Worried Man

Worried Man Guitar Tabs

Paolo Nutini - Worried Man chords, tabs, tablatures, lyrics

Guitar lessons | Add/correct | Request | Top 50 tabs Artists:  A B C D E F G H I J K L M N O P Q R S T U V W X Y Z 0-9

Worried Man Guitar Tabs – Paolo Nutini

CD, Sheet music, Poster

Do you like Worried Man? Share with your friends now
ChordsTabsUkulele
			  Paolo Nutini - Worried Man

Tuning:EADGBe

For this song you will need to know four chords. Em,G,Am,D.
I find that it is much easier to fingerpick it.


Please Rate and comment, thanks.

Intro:

  Em
e|------------|
B|------------|
G|---0------0-|       x8
D|--2------2--|
A|-----0h2----|
E|-0----------|

Verse 1 :
   Em                     G                   Em                     G
e|-------------------------------------------------------------------------|
B|-------------------------------------------------------------------------|
G|---0----0----0------------0----0---0----0----0-----0-------0---------0---|
D|--2----2----2------------0----0---0----0----2-----2-------2---------0----|
A|----0h2--------------------0h2------0h2--------0h2-----------------------|
E|-0---------0-----0--2--3---------3---------0-------------0---0--2--3-----|

                      Am                      Em
e|-------------------------------------------------------------------------|
B|---------------------1----1------1----1----------------------------------|
G|-----0---0----0-----2----2------2----2-------0----0------0----0----------|
D|----0---0----0--------0h2---------0h2-------2----2------2----2-----------|
A|-0h2------0h2------0-----------0--------------0h2---------0h2------------|
E|-------3-----------------------------------0-----------0-----------------|

   Am            D
e|----------------2----2-|
B|----1----1-----3----3--|
G|---2----2--------0h2---|
D|-----0h2------0--------|     x2
A|--0--------------------|
E|-----------------------|


Verse 1 ending 1:

    Em
e|-------------------------------------------------|
B|-------------------------------------------------|
G|------0---------0---------0---------0------------|
D|-----2---------2---------2---------2-------------|
A|-------0h2-------0h2-------0h2-------0h2---------|
E|----0-----3b--0-----3b--0-----3b--0-----3b-------|


Verse 1 Ending 2:

  Em
e|---------------------|
B|---------------------|
G|---0----------0------|
D|--2----------2-------|
A|----0h2--------0h2---|
E|-0-----3b---0-----3b-|

Chorus:

    G                    Em
e|--------------------------------------------------------|
B|--------------------------------------------------------|
G|----0----0-----0----0------0----0------0----------------|
D|---0----0-----0----0------2----2------2-----------------|    x3
A|-----0h2--------0h2---------0h2-------------------------|
E|--3----------3-----------0-----------0---0--2-----------|


    Am         D        Em
e|----------------2----2-------------------------------------------------|
B|----1----1-----3----3--------------------------------------------------|
G|---2----2--------0h2------0-----------0----------0---------------------|
D|-----0h2------0----------2-----------2----------2----------------------|
A|--0------------------------0h2---------0h2--------0h2------------------|
E|------------------------0------3b--0------3b--0------3b----------------|




Verse 2:
Same as Verse 1.

Chorus:

Verse 3:
Repeat Chorus.


Chorus:

Ending (2:18 - end)

   Em                                             G
e|-----------------------------------------------------------------------|
B|-----------------------------------------------------------------------|
G|---0----0-----0----0-----0----0-----0----0------0----0------0----0-----|
D|--2----2-----2----2-----2----2-----2----2------0----0------0----0------|
A|----0h2--------0h2--------0h2--------0h2---------0h2---------0h2-------|
E|-0----------0----------0----------0-----------3-----------3------------|

     Em                  G                     Em
e|-----------------------------------------------------------------------|
B|-----------------------------------------------------------------------|
G|---0----0-----0----0-----0----0-----0----0-----0----0-----0----0-------|
D|--2----2-----2----2-----0----0-----0----0-----2----2-----2----2--------|
A|----0h2--------0h2--------0h2--------0h2--------0h2--------0h2---------|
E|-0----------0----------3----------3----------0----------0--------------|

    Am                   Em                   Am          D
e|----------------------------------------------------------2----2-------|
B|---1----1-----1----1--------------------------1----1----3----3---------|
G|--2----2-----2----2-----0----0-----0----0----2----2-------0h2----------|
D|----0h2--------0h2-----2----2-----2----2-------0h2-----0---------------|
A|-0----------0------------0h2--------0h2-----0--------------------------|
E|----------------------0----------0-------------------------------------|

  Em
e|--------|
B|--------|
G|--0-----|
D|-2------|
A|---0h2--|
E|0-----3b|

  Em
e|----------|
B|----------|
G|---0----0-|
D|--2----2--|         x8
A|----0h2---|
E|-0--------|

  Em 
e|----------------------12+-----|
B|--------------------12+-------|
G|----0-------------12+---------|
D|---2-2---2/9------------------|
A|--2---2-2---------------------|
E|-0-----0----------------------|





Comments


Popular Paolo Nutini tabs & chords
10/10 Chords
Candy 2 Chords
Chamber Music Chords
Growing Up Beside You Chords
Pencil Full Of Lead Chords
What A Day For A Day Dream Chords
Pencil Full Of Lead Tabs
Autumn Ukulele
Last Request Ukulele
White Lies Ukulele


Song lyrics



↑ Back to top | Tablatures and chords are parodies/interpretations of the original songs. You may use it for private study, scholarship, research or language learning purposes only
© 2014 AZChords.com Contact us | Privacy policy | DMCA | Add/correct tabs | Request tabs | Top 50 tabs