» » »

Paolo Nutini, Jenny Don't Be Hasty Bass tabs (ver.1)

Artists:  A B C D E F G H I J K L M N O P Q R S T U V W X Y Z # 

Jenny Don't Be Hasty Bass tabs (ver.1)

Paolo Nutini Tabs
Rating:
0/5 (0 votes)
Hard to play? Try these video lessons and learn fast.
                -------------------------------------------------------------------------------
-------------------------------------------------------------------------------


Tuning: standard tuning

this song is unbelievably easy, and sounds good.... enjoy :)
the timing is easy to get a hang of

Intro - with a volume pick up for the effect

G|------------------------------------------------------------------------------|
D|------------------------------------------------------------------------------|
A|------------------------------------------------------------------------------|
E|----2-2-2-2-2-2-2-2-2-2-2-2-2-2-2-2-2-2-2-2-----------------------------------|

Verse - x4

G|---------------------------------------------------------------------------|
D|-------------------------0-------------------------------------------------|
A|------4--5--4--2---0--2-----2--0--2---2--4--2------------0-----------------|
E|---2-------------------------------------------2---0--2-----2--0-----------|

1st Chorus

G|---------------------------------------------------------------------------|
D|---------------------------------------------------------------------------|
A|------------------------------55--55--0------------------------------------|
E|-----5--55--55--55-x-7-x-2--22---------------------------------------------|

At the end of the 1st chorus

G|---------------------------------------------------------------------------|
D|---------------------------------------------------------------------------|
A|------------------------------55--55--55555--------------------------------|
E|-----5--55--55--55-x-7-x-2--22---------------------------------------------|

Verse - x5

G|---------------------------------------------------------------------------|
D|-------------------------0-------------------------------------------------|
A|------4--5--4--2---0--2-----2--0--2---2--4--2------------0-----------------|
E|---2-------------------------------------------2---0--2-----2--0-----------|

Chorus - x3

G|---------------------------------------------------------------------------|
D|---------------------------------------------------------------------------|
A|------------------------------55--55--0------------------------------------|
E|-----5--55--55--55-x-7-x-2--22---------------------------------------------|

then

G|---------------------------------------------------------------------------|
D|---------------------------------------------------------------------------|
A|--------------------22--22--55--55-----------------------------------------|
E|-----5--55--00--00---------------------------------------------------------|


* guitar solo * ( bass does not play ) - if you really wanted to you could play the verse rhythm :)


Chorus - x3

G|---------------------------------------------------------------------------|
D|---------------------------------------------------------------------------|
A|------------------------------55--55--0------------------------------------|
E|-----5--55--55--55-x-7-x-2--22---------------------------------------------|

then

G|---------------------------------------------------------------------------|
D|---------------------------------------------------------------------------|
A|--------------------22--22--55--55-----------------------------------------|
E|-----5--55--00--00---------------------------------------------------------|

outro - the first loop sonds best if only played by guitar
then for the second loop the bass kicks in again with the chorus

G|---------------------------------------------------------------------------|
D|-------------------------0-------------------------------------------------|
A|------4--5--4--2---0--2-----2--0--2---2--4--2------------0-----------------|
E|---2-------------------------------------------2---0--2-----2--0-----------|


G|---------------------------------------------------------------------------|
D|-------------------------0-------------------------------------------------|
A|------4--5--4--2---0--2-----2--0--2---2--4--2------------------------------|
E|---2-------------------------------------------2---------------------------|


great and fun song to play with ya band ... cheers
            

comments powered by Disqus
↑ Back to top | Paolo Nutini Bass for Jenny Don't Be Hasty. Lyrics for acoustic guitar and electric guitar. Tablatures and chords are parodies/interpretations of the original songs. You may use it for private study, scholarship, research or language learning purposes only