>
 >
Coming Up Easy

Coming Up Easy Bass Tabs

Paolo Nutini - Coming Up Easy chords, tabs, tablatures, lyrics

Guitar lessons | Add/correct | Request | Top 50 tabs Artists:  A B C D E F G H I J K L M N O P Q R S T U V W X Y Z 0-9

Coming Up Easy Bass Tabs – Paolo Nutini

CD, Sheet music, Poster

Do you like Coming Up Easy? Share with your friends now
Bass TabsChordsChords v2Chords v3Ukulele
---------------------------------------------------------------------
Coming up easy- Paolo Nutini
---------------------------------------------------------------------


Tuning: EADG
if u got any coments/ corrections ect
Intro:
G|------------------------------------------------------------------|
D|555---------------555---------------------------------------------|
A|---567-753-32---25---567-753-32---25------------------------------|
E|------7---3--5-5--------7---3-5-5---33---------------------------|
Verse 1:
G|---24242---------------25255--------------------------------------|
D|--4-----42-22---------5---------25--------------------------------|
A|22-----------5------33---------5----------------------------------|
E|--------------530033--------3-3----33-----------------------------|

G|---24242---------------25255--------------------------------------|
D|--4-----42-22---------5---------25--------------------------------|
A|22-----------5------33---------5----------------------------------|
E|--------------530033--------3-3----33-----------------------------|
Bridge:
G|------------------------------------------------------------------|
D|------------------------------------------------------------------|
A|------------5024-5------------------------------------------------|
E|5024-505024-------------------------------------------------------|
Chorus:
G|------------------------------------------------------------------|
D|555---------------555---------------------------------------------|
A|---567-753-32---25---567-753-32---25------------------------------|
E|------7---3--5-5--------7---3-5-5---5---33-----------------------|
Verse 2:
G|---24242---------------25255--------------------------------------|
D|--4-----42-22---------5---------25--------------------------------|
A|22-----------5------33---------5----------------------------------|
E|--------------530033--------3-3----33-----------------------------|

G|---24242---------------25255--------------------------------------|
D|--4-----42-22---------5---------25--------------------------------|
A|22-----------5------33---------5----------------------------------|
E|--------------530033--------3-3----33-----------------------------|

Bridge:
G|------------------------------------------------------------------|
D|------------------------------------------------------------------|
A|------------5024-5------------------------------------------------|
E|5024-505024-------------------------------------------------------|

Chorus:
G|------------------------------------------------------------------|
D|555---------------555---------------------------------------------|
A|---567-753-32---25---567-753-32---25------------------------------|
E|------7---3--5-5--------7---3-5-5--------------------------------|

G|------------------------------------------------------------------|
D|555---------------555---------------------------------------------|
A|---567-753-32---25---567-753-32-----------------------------------|
E|------7---3--5-5--------7---3-3----------------------------------|

Ending:
G|------------------------------------------------------------------|
D|-----5--5---------5--5---------5--5-------------------------------|
A|---57--7-75-----57--7-75-----57--7-75-----------------------------|
E|333--------7-333--------7-333--------7 ---------------------------|
Repeat over and over till ending, just playing around on these note and octave jumps of a G note.
| /  slide up
| \  slide down
| h  hammer-on
| p  pull-off
| ~  vibrato
| +  harmonic
| x  Mute note
=====================================================================





Comments


Popular Paolo Nutini tabs & chords
Pencil Full Of Lead Bass Tabs
It Must Be Love Chords
Jenny Dont Be Hasty 4 Chords
Keep Rolling Chords
Last Request 5 Chords
Rewind 5 Chords
Tumbling Down Chords
Loving You Tabs
Tricks Of The Trade Tabs
Chamber Music Ukulele


Song lyrics



↑ Back to top | Tablatures and chords are parodies/interpretations of the original songs. You may use it for private study, scholarship, research or language learning purposes only
© 2014 AZChords.com Contact us | Privacy policy | DMCA | Add/correct tabs | Request tabs | Top 50 tabs