>
 >
War Nerve 1

War Nerve 1 Guitar Tabs

Pantera - War Nerve 1 chords, tabs, tablatures, lyrics

Guitar lessons | Add/correct | Request | Top 50 tabs Artists:  A B C D E F G H I J K L M N O P Q R S T U V W X Y Z 0-9

War Nerve 1 Guitar Tabs – Pantera

CD, Sheet music, Poster

Do you like War Nerve 1? Share with your friends now
Bass TabsTabsTabs v2
Symbols used in this tab:

Notes:
w - whole note
h - half note
q - quarter note
e - eighth note
s - sixteenth note

Rests:
W - whole rest
H - Half rest
Q - quarter rest
E - eighth rest
S - sixteenth rest

Articulations:
pm - palm muting
^ - hammer on/pull off
/ - slide up
\ - slide down
~ - vibrato
AH - artificial harmonic (written above tab number)
b - bend
x - muted notes/slides to or from unspecified notes
BEER - denotes beer technique, always have one hand
       free to hold your beer, otherwise it don't
       sound right.

   intro:
   12/8
                   /        repeat 3 times       \
C#|----------------|---------|-------------------|----------------|
G#|----------------|---------|-------------------|----------------|
E |----------------|.--------|------------------.|----------------|
B |-----x/7b8-7-5--|.---8-7--|--5-----x/7b8-7-5-.|----------------|
F#|----------------|--2------|----2--------------|--2-----3---3---|
C#|-----x/5b6-5-3--|--0-6-5--|--3-0---x/5b6-5-3--|--0-----1---1---|
    H+Q e e+e q e     w q q     e h+e e e+e q e     h+q+e e+e e Q
                                      
   break:
   4/4
C#|---------|-------|
G#|---------|-------|
E |---------|-------|
B |---------|-------|
F#|--10-10--|--7-3--|
C#|--8--7---|--5-1--|
     h  h      h h

   *build up:
C#|------------------------------|------------------------------|
G#|------------------------------|------------------------------|
E |.-----------------------------|-----------------------------.|
B |.-2-2-2-2---2-2-2-2-2-----5b--|--2-2-2-2---2-2-2-2-2-----7b-.|
F#|--2-2-2-2---2-2-2-2-2---------|--2-2-2-2---2-2-2-2-2---------|
C#|--0-0-0-0---0-0-0-0-0---0-3b--|--0-0-0-0---0-0-0-0-0---0-5b--|
     s s s s S s s s s s S s q      s s s s S s s s s s S s q
     pm-----]  pm-------]  pm       pm-----]  pm-------]  pm
   *these bars are only repeated 1st time

C#|------------------------------|--------------------------------|
G#|------------------------------|--------------------------------|
E |------------------------------|--------------------------------|
B |--2-2-2-2---2-2-2-2-2-----8b--|--2-2-2-2---2-2-2-2-2-----/13b--|
F#|--2-2-2-2---2-2-2-2-2---------|--2-2-2-2---2-2-2-2-2-----------|
C#|--0-0-0-0---0-0-0-0-0---0-6b--|--0-0-0-0---0-0-0-0-0---0-/11b--|
     s s s s S s s s s s S s q      s s s s S s s s s s S s  q
     pm-----]  pm-------]  pm       pm-----]  pm-------]  pm

  /         repeat 3 times         \
C#|--------------------------------|--------------------------|
G#|--------------------------------|--------------------------|
E |.------------------------------.|--------------------------|
B |.-2-2-2-2---2-2-2-2-2-----/13b-.|--2-2-2-2---2-2-2-2-2-----|
F#|--2-2-2-2---2-2-2-2-2-----------|--2-2-2-2---2-2-2-2-2-----|
C#|--0-0-0-0---0-0-0-0-0---0-/11b--|--0-0-0-0---0-0-0-0-0-----|
     s s s s S s s s s s S s  q       s s s s S s s s s s Q+E
     pm-----]  pm-------]  pm         pm-----]  pm-------]

  /         repeat 3 times       \
C#|------------------------------|------------------------------|
G#|------------------------------|------------------------------|
E |.----------------------------.|------------------------------|
B |.-2-2-2-2---2-2-2-2-2-----3b-.|--2-2-2-2---2-2-2-2-2---/13b--|
F#|--2-2-2-2---2-2-2-2-2---------|--2-2-2-2---2-2-2-2-2---------|
C#|--0-0-0-0---0-0-0-0-0---0-1b--|--0-0-0-0---0-0-0-0-0-0-/11b--|
  |  s s s s S s s s s s S s q   |  s s s s S s s s s s e  q    |
  |  pm-----]  pm-------]  pm    |  pm-----]  pm-------]        |
  |                              |                              |
C#|------------------------------|------------------------------|
G#|------------------------------|------------------------------|
E |.----------------------------.|------------------------------|
B |.-2-2-2-2-----------------3b-.|--2-2-2-2---------------/13b--|
F#|--2-2-2-2---------------------|--2-2-2-2---------------------|
C#|--0-0-0-0-----------------1b--|--0-0-0-0-------------0-/11b--|
     s s s s H               q      s s s s Q+E         e  q

   verse:
  /                         repeat 4 times                          \
C#|--------------------------------|--------------------------------|
G#|--------------------------------|--------------------------------|
E |.-------------------------------|-------------------------------.|
B |.-2-2-2-2---2-2-2-2-2-----/13b--|--2-2-2-2---2-2-2-2-2-----/13b-.|
F#|--2-2-2-2---2-2-2-2-2-----------|--2-2-2-2---2-2-2-2-2-----------|
C#|--0-0-0-0---0-0-0-0-0---0-/11b--|--0-0-0-0---0-0-0-0-0---0-/11b--|
     s s s s S s s s s s S s  q       s s s s S s s s s s S s  q
     pm-----]  pm-------]  pm         pm-----]  pm-------]  pm

   chorus:
C#|-------------------------|---------------------|
G#|-------------------------|---------------------|
E |.-----AH-AH---AH-AH------|---------------------|
B |.-----4--4b5--4--2^4-----|---------------------|
F#|--*----------------------|---------------------|
C#|--0------------------6~--|--(6~)-6-/9-6-3^2-0--|
     q+e e  e    e  s s e   +   q+e e  e e s s e  +
     *note tied on repeat

   1.
C#|--------------------------|---------------------|
G#|--------------------------|---------------------|
E |-------AH-AH---AH-AH------|--------------------.|
B |-------5--7b8--7--5^7-----|--------------------.|
F#|--------------------------|---------------------|
C#|--(0)-----------------6~--|--(6~)-6-/9-6-3^2-0--|
  +   q+e e  e    e  s s e   +   q+e e  e e s s e  +

   2.
C#|-------------------------|--------|
G#|-------------------------|--------|
E |-------AH-AH--AH---------|--------|
B |-------5--7b8-7--5-------|--------|
F#|-------------------7-----|---*----|
C#|--(0)----------------6b--|--(6)b--|
  +   q+e e    e e  s s e   +   w
                           *continue bend

   after chorus:
   12/8
C#|-------------------------|---------------------------|---------------------------|
G#|-------------------------|---------------------------|---------------------------|
E |.------------------------|---------------------------|---------------------------|
B |.------------------------|---------------------------|---------------------------|
F#|-------------------------|---------------------------|---------------------------|
C#|-11b~-0-11---11b~-0-11---|-11b~-0-11---x/11b~-0-11---|-x/11b~-0-11---11b~-0-11---|
    q    e e  Q q    e e  Q   q    e e  E e q    e e  Q   e q    e e  Q q    e e  E

   1.                         2.
C#|--------------------------|---------------------|
G#|--------------------------|---------------------|
E |-------------------------.|---------------------|  back to build up,
B |---------------x/7b8-7-5-.|---------------------|  then 2nd verse, etc.
F#|--------------------------|-----------9\--3-3---|
C#|--x/11b~-0-11\-x/5b6-5-3--|--x/11b~-0-7\--1-1---|
     e q    e q   e e e q e     e q    e h   q e E

   3. (after 2nd verse and chorus)
                             /        repeat 3 times       \
C#|--------------------------|---------|-------------------|----------------|
G#|--------------------------|---------|-------------------|----------------|
E |--------------------------|.--------|------------------.|----------------|
B |---------------x/7b8-7-5--|.---8-7--|--5-----x/7b8-7-5-.|----------------|
F#|--------------------------|--2------|----2--------------|--2-----3---3---|
C#|--x/11b~-0-11\-x/5b6-5-3--|--0-6-5--|--3-0---x/5b6-5-3--|--0-----1---1---|
     e q    e q     q+e q e     w q q     e h+e e e e q e     h+q+e e+e e Q

   break:
C#|---------------------------------|
G#|---------------------------------|
E |.-------------------------------.|
B |.-------------------------------.|
F#|---------------------------------|
C#|--0-3-3-3-3-3-3-3-0-3-3-3-0-3-3--|
     e s s s s s s s s s s s s s s
       pm-----------]  pm---]  pm-]

   with screaming riff:
C#|-----------------------------|-----------------------------|
G#|-----------------------------|-----------------------------|
E |.----------------------------|----------------------------.|
B |.----------------------------|----------------------------.|
F#|----------------------7---6--|-----------------------------|
C#|--0-0-0-0-0-0-0-2^3-2---0----|--0-0-0-0-0-0-0-5^6-5-3-0-3--|
     e s s s s s s s s e s s e     e s s s s s s s s e s s e
       pm---------]                  pm---------]

   kuff daddy riff:
C#|----------------|----------------|
G#|----------------|----------------|
E |.---------------|---------------.|
B |.---------------|---------------.|
F#|--------2-3-----|--------2-3-----|
C#|--11\-1-----1/--|--11\-1-----1/--|
     q+e e q q q      q   q q q q
           { 3 }            { 3 }

   last riff:
C#|----------------------------|----------------------------|
G#|----------------------------|----------------------------|
E |.---------------------------|----------------------------|
B |.-{ 3 }-{ 3 }-{  3 }-{ 3 }--|--{ 3 }-{ 3 }--{ 3 }-{ 3 }--|
F#|--2-2-2-2-2-2-2-/8-8-7-7-5--|--2-2-2-2-2-2-/8-8-8-7-7-5--|
C#|--0-0-0-0-0-0-0-/6-6-5-5-3--|--0-0-0-0-0-0-/6-6-6-5-5-3--|
     e e e e e e e  e e e e e     e e e e e e  e e e e e e
       pm-]  pm  pm                 pm-]  pm


                                1.
C#|----------------------------|---------------------------|
G#|----------------------------|---------------------------|
E |----------------------------|--------------------------.|
B |--{ 3 }-{ 3 }-{  3 }-{ 3 }--|--{ 3 }-{ 3 }-{ 3 }-{ 3 }-.|
F#|--2-2-2-2-2-2-2-/8-8-7-7-5--|--2-2-2-2-2-2-2-3-3-2-3-3--|
C#|--0-0-0-0-0-0-0-/6-6-5-5-3--|--0-0-0-0-0-0-0-1-1-0-1-1--|
     e e e e e e e  e e e e e     e e e e e e e e e e e e
       pm-]  pm  pm                 pm-]  pm-]

   2.                          3.
C#|---------------------------|---------------------------|----------|
G#|---------------------------|---------------------------|----------|
E |--------------------------.|--------------------{ 3 }--|----------|
B |--{ 3 }-{ 3 }-{ 3 }-{ 3 }-.|--{ 3 }-{ 3 }-{ 3 }---3-3--|--{3 }----|
F#|--2-2-2-2-2-2-2-3-3-3-3-3--|--2-2-2-2-2-2-2-3-3-3-3-3--|--2-------|
C#|--0-0-0-0-0-0-0-1-1-1-1-1--|--0-0-0-0-0-0-0-1-1-1-1-1--|--0-------|
     e e e e e e e e e e e e     e e e e e e e e e e e e     e Q H+Q
       pm-]  pm-------------]      pm-]  pm-]





Comments


Popular Pantera tabs & chords
A New Level Of Confidence Bass Tabs
Revolution Is My Name Bass Tabs
This Love Easier To Read Bass Tabs
5 Minutes Alone 1 Tabs
Hollow 5 Tabs
Im Broken Tabs
Revolution Is My Name 5 Tabs
Slaughtered Tabs
The Sleep Tabs
Valhalla Tabs


Song lyrics



↑ Back to top | Tablatures and chords are parodies/interpretations of the original songs. You may use it for private study, scholarship, research or language learning purposes only
© 2014 AZChords.com Contact us | Privacy policy | DMCA | Add/correct tabs | Request tabs | Top 50 tabs