» » »

Pantera, Revolution Is My Name Tabs (ver.3)

Artists:  A B C D E F G H I J K L M N O P Q R S T U V W X Y Z # 

Revolution Is My Name Tabs (ver.3)

Pantera Tabs
Rating:
0/5 (0 votes)
Hard to play? Try these video lessons and learn fast.
                tab subbmited by Kev(Sk8)
bandname=Pantera
songname=Revolution is my name
tabtype=guitar

riff 1
E -------------------------------------------------------------
B -------------------------------------------------------------
G -------------------------------------------------------------
D -------------------------------------------------------------
A -------------------------7-5---7---5-------------------------
E -0-0-0-0-0-0-0-0-0-0-0-0-----7---7---7-6-5-3-5-3-0-0-0-0-0-0-

E -------------------------------------------------------------
B -------------------------------------------------------------
G -------------------------------------------------------------
D -------5-----------5----------5--------8---------------------
A -7-5-----7-5-7-5-----7-5------3--------6---------------------
E -----7-----------7------------5--------6---------------------
            

comments powered by Disqus
↑ Back to top | Pantera Tabs for Revolution Is My Name. Lyrics for acoustic guitar and electric guitar. Tablatures and chords are parodies/interpretations of the original songs. You may use it for private study, scholarship, research or language learning purposes only