>
 >
I'm Broken 2

I'm Broken 2 Guitar Tabs

Pantera - I'm Broken 2 chords, tabs, tablatures, lyrics

Guitar lessons | Add/correct | Request | Top 50 tabs Artists:  A B C D E F G H I J K L M N O P Q R S T U V W X Y Z 0-9

I'm Broken 2 Guitar Tabs – Pantera

CD, Sheet music, Poster

Do you like I'm Broken 2? Share with your friends now
TabsTabs v2Tabs v3
Intro
1------------------------------------------------------------------
2------------------------------------------------------------------
3------------------------------------------------------------------
4---0h2-0h2-0---------------0h20-0h2-0-----------------------------
5-------------2-0----------------------2-0-------------------------
6-----------------3-0----------------------3-0---down and up w/bar-

1------------------------------------------------------------------------
2------------------------------------------------------------------------
3----------------------------------------------------------------7-------
4---0h2-0h2-0---------------5h7h5----0h2-0h2-0---------5h7h5--9----------
5-------------2-0-----5h7h5--------------------2-0-----------------------
6-----------------3-0------------------------------3-0-------------------

verse (all bends are one whole step)
1------------------------------------------------------------------------
2------------------------------------------------------------------------
3------------------------------------------------------------------------
4------------------------------------------------------------------------
5--------------------------------------------5^--5^-----5^--5^-----------
6---5^--5^--0-0--5^--5^--0-0-repeat severalx--------0-0--------0-0-------

bridge to chorus
1------------------------------------------------------------------------
2------------------------------------------------------------------------
3------------------------------------------------------------------------
4------------------------------------------------------------------------
5------------------------------------------------------------------------
6---5-6-5-3-0-------2-3-2-1-0--------------------------------------------

bridge to solo
1-----------------------------------------------------------------------
2-----------------------------------------------------------------------
3-----------------------------------------------------------------------
4-----------------------------------------------------------------------
5----------------------------5------------------------------------------
6---0-0--0-0--0-0--7-6-5-6-7---7----------------------------------------

solo
1-----------------12--------12--------------------------------------------
2-------15-15--------15-15-----15------------14-14--15---14---15----14----
3---14^-------14^-------14^-------14^--9/--12-----12--12----12----12---12/
4-------------------------------------------------------------------------
5-------------------------------------------------------------------------
6-------------------------------------------------------------------------

1---17-12-15/12x12-15/12-15/12-12-12-12---------12---------------------------
2---------------------------------------16-15-12---12-15/12-13-12-15/12-15/12
3----------------------------------------------------------------------------
4----------------------------------------------------------------------------
5----------------------------------------------------------------------------
6----------------------------------------------------------------------------

1--------------------------------------------------------------------
2---13-12-13-12-------15/12-13/12-13-12------13/12-12---12-----------
3---------------15-12-------------------15/12---------12---15-14/12--
4--------------------------------------------------------------------
5--------------------------------------------------------------------
6--------------------------------------------------------------------

1----------------------------------------------------------------
2----------------------------------------------------------------
3---14/12----12-12/11----11-11-------------------------12^-------
4---------14----------12-------12----------------12/14-----------
5---------------------------------------10-12/14-----------------
6------------------------------------12--------------------------

 A.H.-  -  -  -  -  -  -  -
1---------------------------------12----14----15----15^-(15)^---
2----------------------------5/12----12----12----12-------------
3---16^-(16)-(16)^----------------------------------------------
4------------------14/12-14-------------------------------------
5---------------------------------------------------------------
6---------------------------------------------------------------

repeat these bent chords alternating between 2 step bends and 1 step bends
1---15^---------------------------------------------------------
2---15^---------------------------------------------------------
3---------------------------------------------------------------
4---------------------------------------------------------------
5---------------------------------------------------------------
6---------------------------------------------------------------

1---19^~~~~~~~~~~~~~~~~~~~~~~w/bar------------------------------
2-------------------------------------12/-----------------------
3---------------------------------------------------------------
4---------------------------------------------------------------
5---------------------------------------------------------------
6---------------------------------------------------------------

1---------------15-17-19-19-------------16-17-19-19-18-19-20-21-22-22^
2---15-17-19-19-------------15-17-19-19-------------------------------
3---------------------------------------------------------------------
4---------------------------------------------------------------------
5---------------------------------------------------------------------
6---------------------------------------------------------------------

Man that solo was hard to tab! well I hope
you can figure it out. it is a lot. Everything
else is pretty easy. Please comment.





Comments


Popular Pantera tabs & chords
Broken Bass Tabs
The Art Of Shredding Bass Tabs
Becoming 2 Tabs
Cant Hide Tabs
Clash With Reality Tabs
Clash With Reality 1 Tabs
Cowboy's From Hell 1 Tabs
I'll Cast A Shadow Tabs
Ill Cast A Shadow 1 Tabs
Mouth For War 3 Tabs


Song lyrics



↑ Back to top | Tablatures and chords are parodies/interpretations of the original songs. You may use it for private study, scholarship, research or language learning purposes only
© 2014 AZChords.com Contact us | Privacy policy | DMCA | Add/correct tabs | Request tabs | Top 50 tabs