>
 >
God Damn Electric

God Damn Electric Guitar Tabs

Pantera - God Damn Electric chords, tabs, tablatures, lyrics

Guitar lessons | Add/correct | Request | Top 50 tabs Artists:  A B C D E F G H I J K L M N O P Q R S T U V W X Y Z 0-9

God Damn Electric Guitar Tabs – Pantera

CD, Sheet music, Poster

Do you like God Damn Electric? Share with your friends now
TabsTabs v2
Tune down 1 whole step 

----------------------|----------------------|----------------------|--------- 
----------------------|----------------------|----------------------|--------- 
----------------------|----------------------|----------------------|--------- 
-4--4---4-------------|-4--4---4-------------|-3--3---3-------------|--------- 
-4--4---4-------------|-4--4---4-------------|-3--3---3-------------|--------- 
-2--2---2--2-2-2--2-2-|-2--2---2--2-2-2--2-2-|-1--1---1--1-1-1--1-1-|--------- 
           . . .  . .             . . .  . .             . . .  . . 

----------------------|--|---------------------------------------------------- 
----------------------|--|---------------------------------------------------- 
----------------------|--|---------------------------------------------------- 
-4--4---4-------------|x2|--4--4---4/----------------------------------------- 
-4--4---4-------------|--|--4--4---4/----------------------------------------- 
-2--2---2--2-2-2--2-2-|--|--2--2---2/----------------------------------------- 
           . . .  . .      2nd time around last bar changes to 

-----------------------|----|------------------------------------------------- 
-----------------------|----|------------------------------------------------- 
-----------------------|----|------------------------------------------------- 
---------------------8-|-x7-|------------------------------------------------- 
---------------------8-|----|------------------------------------------------- 
-0-/12--0--0-/12--0--6-|----|-0-/12--0-/12--4\-------------------------------- 
Verse                       8th time       with trem bar 

--------------------|--------------------|------------------------------------ 
--------------------|--------------------|------------------------------------ 
--------------------|--------------------|------------------------------------ 
--------------------|--------------------|-x8--------------------------------- 
-7--7-7--7-7--7-7--7|8--8-8--8-6--6-6--6-|------------------------------------ 
-0--0-0--0-0--0-0--0|0--0-0--0-0--0-0--0-|------------------------------------ 
Interlude 1 

---------------------------|--------------------|---------------------------|- 
---------------------------|--------------------|---------------------------|- 
-10b---10b---10b---10b--8b-|--------------------|-10b----10b---10b---10b--8b|- 
---------------------------|--------------------|---------------------------|- 
-8b----8b----8b----8b---6b-|-----7--7-7--7-7--7-|-8b-----8b----8b----8b---6b|- 
-----0-----0-----0---------|---0-0--0-0--0-0--0-|------0-----0-----0--------|- 
Chorus (Rhy Fig 2)        Dont waste your time 

-----------------------|---------------------------|-------------------|------ 
-----------------------|---------------------------|-------------------|------ 
------8b---8b---8b-----|-10b---10b---10b---10b--8b-|-------------------|------ 
-----------------------|---------------------------|-------------------|------ 
------6b---6b---6b-----|-8b----8b----8b----8b---6b-|-----7--7-7--7-7-7-|------ 
--0-0----0----0------0-|-----0-----0-----0---------|---0-0--0-0--0-0-0-|------ 
    Embrace it 

-------------------------|-------------------------|-------------------------- 
-------------------------|-------------------------|-------------------------- 
-13b---14b---15b---16b---|-10b---11b---12b---13b---|-------------------------- 
-------------------------|-------------------------|--------------2----------- 
-11b---12b---13b---14b---|-8b----9b----10b---11b---|-10-9-9-7-7-5-2----------- 
-----0-----0-----0-----0-|-----0-----0-----0-----0-|-8--7-7-5-5-3-0----------- 
                           Harmony Part End fig 2    Change in u God***.. 

-------------|---------------------------------------------------------------- 
-------------|---------------------------------------------------------------- 
-------------|---------------------------------------------------------------- 
-------------|---------------------------------------------------------------- 
-5-7-7-8-8-9-|---------------------------------------------------------------- 
-3-5-5-6-6-7-|---------------------------------------------------------------- 
Play this 2nd time around after end of fig 2, then repeat fig 2 

----------------------------|------------------------------------------------- 
----------------------------|------------------------------------------------- 
----------------------------|------------------------------------------------- 
--------------------------2-|------------------------------------------------- 
-10-9-9-8-8-7--6-6-5-5-3--2-|------------------------------------------------- 
-8--7-7-6-6-5--4-4-3-3-1--0-|------------------------------------------------- 
play this before change in tempo 

---------------------------------|-----------------------------|-------------- 
---------------------------------|-----------------------------|-------------- 
---------------------------------|-----------------------------|-------------- 
-0h2-----------------------------|-0h2-------------------------|-x3----------- 
-0h2-----5-------5-------5---7/8-|-0h2-----5-------5-----------|-------------- 
-----0-0-3p0-0-0-3p0-0-0-3p0-5/6-|-----0-0-3p0-0-0-3p0-5brbrbr-|-------------- 
slight pm                                                      then... 

-----------------------------------|--------------------------------|--------- 
-----------------------------------|--------------------------------|--------- 
-----------------------------------|-------------------------^------|--------- 
-----------------------------------|-0h2---------------------5------|--------- 
-5--5-5-5-5-5-5-5-7--7-7-7-7-7-7-7-|-0h2-----5-------5---5/7---7vvv-|--------- 
-3--3-3-3-3-3-3-3-5--5-5-5-5-5-5-5-|-----0-0-3p0-0-0-3p0------------|--------- 
fig 3                                                       AH 

-----------------------------------|-------------------|---------------------- 
-----------------------------------|-------------------|---------------------- 
-----------------------------------|-------------------|---------------------- 
-----------------------------------|-0h2---------------|---------------------- 
-5--5-5-5-5-5-5-5-7--7-7-7-7-7-7-7-|-0h2---------------|---------------------- 
-3--3-3-3-3-3-3-3-5--5-5-5-5-5-5-5-|-----0-0-0-5brbrbr-|---------------------- 
                                      then play first 3 bars of fig 3 again 

-------------------------|--------------------|---6--------6--------6----|---- 
-------------------------|--------------------|-9---9b---9---9b---9---9b-|---- 
-------------------------|--------------------|--------------------------|---- 
-------------8---6vv-6h8-|-6b-------6h8/10vvv-|--------------------------|---- 
---------6h8---8---------|----8vvv------------|--------------------------|---- 
-6vv-6h9-----------------|--------------------|--------------------------|---- 
solo! 

-6------6------6--------|--------12-17p12-17p12----------17p12-17p12---------- 
---9b-----9b-----9bvvvv-|-15bvvv----------------12h13----------------12h13---- 
------------------------|-----------------------------12---------------------- 
------------------------|----------------------------------------------------- 
------------------------|----------------------------------------------------- 
------------------------|----------------------------------------------------- 


----|-15p12-------------15p12------------------------------------------------- 
----|-------15p12-------------15p12-------15p12-------------15p12------------- 
-12-|-------------15p12-------------15p12-------15p14p12----------15p14p12---- 
----|----------------------------------------------------14------------------- 
----|------------------------------------------------------------------------- 
----|------------------------------------------------------------------------- 


---|-15bbbvvvv-----15b-|-r-12h15p12-------------|----------------17-------17-- 
---|-------------------|------------15bvvv\-----|-17-19-20-19-17----19-20----- 
---|-------------------|--------------------/16-|----------------------------- 
-14|-------------------|------------------------|----------------------------- 
---|-------------------|------------------------|----------------------------- 
---|-------------------|------------------------|----------------------------- 


----------17-19-17----19----19-20-17----------20-17----------|-20-17---------- 
-20-19-20----------20----20----------20-19-20-------20-19-20-|-------20-19---- 
-------------------------------------------------------------|---------------- 
-------------------------------------------------------------|---------------- 
-------------------------------------------------------------|---------------- 
-------------------------------------------------------------|---------------- 


----21-19-17----17----17----------17------------------------------------------ 
-20----------20----20----20-19-20----20-19-20-19-17----17--------------------- 
----------------------------------------------------19----19-17-16-17-16------ 


-------|-----------------|--------------|------------------------------------- 
-------|-----------------|--------------|------------------------------------- 
-------|--------12b-13b--|--14b-13b-----|------------------------------------- 
-17-16-|-14bbb-----------|--------------|------------------------------------- 
-------|-----------------|----------14\-|------------------------------------- 
-------|-----------------|--------------|------------------------------------- 
                Use bar for these bends and slide 

----------------|------------------------------------------------------------- 
----------------|------------------------------------------------------------- 
----------------|------------------------------------------------------------- 
----------------|-x4---------------------------------------------------------- 
-3--3-4--4-5----|------------------------------------------------------------- 
-1--1-2--2-3--0-|-------------------------------------------------------------





Comments


Popular Pantera tabs & chords
Cant Hide Bass Tabs
Cemetery Gates 2 Bass Tabs
Shedding Skin Bass Tabs
Shreding Skin Bass Tabs
A New Level 1 Tabs
Cemetary Gates 1 Tabs
Drag The Waters 1 Tabs
I'll Be Alright Tabs
Mission Impossible Theme Tabs
Over And Out Tabs


Song lyrics



↑ Back to top | Tablatures and chords are parodies/interpretations of the original songs. You may use it for private study, scholarship, research or language learning purposes only
© 2014 AZChords.com Contact us | Privacy policy | DMCA | Add/correct tabs | Request tabs | Top 50 tabs