>
 >
Drag The Water 1

Drag The Water 1 Bass Tabs

Pantera - Drag The Water 1 chords, tabs, tablatures, lyrics

Guitar lessons | Add/correct | Request | Top 50 tabs Artists:  A B C D E F G H I J K L M N O P Q R S T U V W X Y Z 0-9

Drag The Water 1 Bass Tabs – Pantera

CD, Sheet music, Poster

Do you like Drag The Water 1? Share with your friends now
Bass TabsBass Tabs v2
Pantera - Drag The Waters 
 
Drop D tuning 
  
 
*INTRO*  
|-------------------|-------------------|-------------------|---2b--0-2-0-------| 
|-------------------|-------------------|-------------------|-------------2-----| 
|-------------------|-------------------|-------------------|-------------------| 
|-1-0----0-1-0----0-|-1-0----0-1-0----0-|-1-0----0-1-0----0-|-0--------------5b-| 

 
*Main Riff*
|-------------------|---2b--0-2-0-------|                                                         
|-------------------|-------------2-----|
|-------------------|-------------------|
|-1-0----0-1-0----0-|-0--------------5b-|


*VERSE* 
      A Smack on the wrists is the words... 
 
|--------------------|-----------------|-----------------|-------------------------| 
|--------------------|-----------------|-----------------|-------------------------| 
|--------------------|-----------------|-----------------|----5~------7~-----------| 
|--1-0----X----X-X-X-|--X-X-X----X-X-X-|--X-X-X----X-X-X-|-3/5-----5/7-----8-7--1-0| 
 
|----2b--0-2-0------| 
|--------------2----| 
|-------------------| <play this riff the last time
|X-X-------------5b-| 

                                                                        
*Chorus*
               ...Drag the waters some more&#8230;
|-------------------|---2b--0-2-0------|-------------------| 
|-------------------|-------------2----|-------------------| 
|-------------------|------------------|-------------------| 
|-1-0----0-1-0----0-|-0-------------5b-|-1-0----0-1-0----0-| 


		     huh&#8230;.ha&#8230;&#8230;..(basically where Phil just makes random screams)
|---2b--0-2-0---------|---------------------|--------------------------------| 
|---------------------|---------------------|--------------------------------| 
|-------------1-0-----|-----1-1-----3b------|---------1-1-----1b----1b-------| 
|-0----------------1b-|---3-----3-1-------1-|-(1)---3-----3-1-----------1----| 
                                        
 
 
|-------------------------|----------------------------|------------------------| 
|-------------------------|----------------------------|------------------------| 
|---------1-1-----3b------|--------1-1-----3b---1~-----|---------3-3-----5b-----| 
|-(1)b--3-----3-1-------1-|-(1)--3-----3-1-----------3-|-(3)b--5-----5-3-------3| 
 
 
|------------------------------|-------------------------|------------------------| 
|------------------------------|-------------------------|------------------------| 
|---------3-3-----5b----3b-----|---------3-3-----5b------|---------3-3------------| 
|-(3)b--5-----5-3-------------3|-(3)b--5-----5-3-------3-|-(3)b--5-----5-3-3-5--6-| 
 
 

*BREAK* 
 
|-----------------------|----------------------------------|-------------------------- 
|-----------------------|----------(guitar solo part)------|--------------------------
|-----------------------|----------------------------------|--------------------------
|1-0--------------------|----------------------------------|-1-0----------------------
 
|-------------------------------------|------2b-(2)--2--0-|-2p0----0-----------------
|------(another guitar solo part)-----|-------------------|-----2--------------------
|-------------------------------------|-------------------|--------------------------
|-------------------------------------|-1-0---------------|-----------5--(5)b--(5)~~- 
 
 
|-------------------|------| 
|-------------------|------| 
|-------------------|------| 
|-1--0--0--0--0--0--|------| 
 
 
*solo*
|-------------------|--2b--0-2-0-----| 
|-------------------|------------2---| 
|-------------------|----------------| 
|-1--0--0--0--0--0--|0-------------5b| 


*Chorus again* 
|--------------------|---2b--0-2-0------|-------------------|---2b--0-2-0-------| 
|--------------------|-------------2----|-------------------|-------------2-----| 
|--------------------|------------------|-------------------|-------------------| 
|--1-0----0-1-0----0-|-0-------------5b-|-1-0----0-1-0----0-|-0-------------5b--| 
 
 ^play riff a few times^

	v(this is the riff he plays at 3:55 &#8211; I dunno what Phils sayin&#8230;)
|--------------------|------------------|-7b^--7------7-(7)-| 
|--------------------|------------------|-------------------| 
|--------------------|------------------|-------------------| 
|--------------------|------------------|-------------------| 
 
*When he says &#8220;ha huh ha huh&#8221; play intro riff*


*Play the Main Riff for most of the song until it gets to this* 
                                                    
|------------------------|---2b--0-2-0------| 
|------------------------|-------------2----| 
|------------------------|------------------|
|--1-0-0--0-0-1-0-0--0-0-|-0-------------5b-|

                                   
*OUTRO* 
|--------------------|---2b--0-2-0------|-------------------|---2b--0-2-0-------| 
|--------------------|-------------2----|-------------------|-------------2-----| 
|--------------------|------------------|-------------------|-------------------| 
|--1-0----0-1-0----0-|-0-------------5b-|-1-0----0-1-0----0-|-0-------------5b--| 
 
|--------------------|---2b--0-2-0------|--------------------|----------------| 
|--------------------|-------------2----|--------------------|----------------| 
|--------------------|------------------|--------------------|----------------| 
|--1-0----0-1-0----0-|-0-------------5b-|-1-0----0-1-0----0-0|-3-5-6--5--6--7-| 
 
 
 
I didn&#8217;t put how many times you play what riff so just listen to the song and figure it out&#8230;i





Comments


Popular Pantera tabs & chords
5 Minutes Alone 1 Bass Tabs
By Demons Be Driven Bass Tabs
Clash With Reality 1 Tabs
Domination 2 Tabs
Hard Lines Sunken Cheeks 1 Tabs
I Cant Hide 1 Tabs
Mission Impossible Theme Tabs
Regular People 1 Tabs
The Great Southern Trendkill 2 Tabs
Where You Come From 1 Tabs


Song lyrics



↑ Back to top | Tablatures and chords are parodies/interpretations of the original songs. You may use it for private study, scholarship, research or language learning purposes only
© 2014 AZChords.com Contact us | Privacy policy | DMCA | Add/correct tabs | Request tabs | Top 50 tabs