>
 >
Clash With Reality

Clash With Reality Guitar Tabs

Pantera - Clash With Reality chords, tabs, tablatures, lyrics

Guitar lessons | Add/correct | Request | Top 50 tabs Artists:  A B C D E F G H I J K L M N O P Q R S T U V W X Y Z 0-9

Clash With Reality Guitar Tabs – Pantera

CD, Sheet music, Poster

Do you like Clash With Reality? Share with your friends now
TabsTabs v2

Legend
------

 h  = hammer-on
 p  = pull-off
 ^  = bend (number of semi-tones above)
 /  = slide up/down
 ~  = vibrato
 w  = with whammy bar


1||------------------|-----------------|-----------------|-----------------|
2||------------------|-----------------|-----------------|-----------------|
3||------------------|-----------------|-----------------|-----------------|
4||------------------|-----------------|-----------------|-----------------|
5||------------------|-----------------|-5-4-2-------5-4-|-2-------4-5-4-2-|
6||-2-4~--2-4~--2-4~-|---2-4~--2-5-4-2-|-------2~--------|---3~------------|


1||------------------|-----------------|-----------------|------------------||
2||------------------|-----------------|-----------------|------------------||
3||------------------|-----------------|-6-4-------------|------------------||
4||------------------|-----------------|-----6-4~----6-4-|--------A.H-------||
5||------------------|-----------------|-----------------|-6-5~---<4>b5r4-2-||
6||-2-4~--2-4~--2-4~-|---2-4~--2-5-4-2-|-----------------|------------------||

   2nd Ending
1||-------------||-----------------|-----------------|----------------|---------------|
2||-------------||-----------------|-----------------|----------------|---------------|
3||-------7--7--||-----------------|-----------------|----------------|---------------|
4||-------7--7--||-----------------|-----------------|----------------|---------------|
5||-6-5~--5--5--||-----------------|-----------------|-554-2------554-|-2-----445-4-2-|
6||-------------||-444-2/4~--2-444-|-2/4~--2-445-4-2-|-------2~-------|---3~----------|


1||------------------|-----------------|-----------------|-----------------||
2||------------------|-----------------|-----------------|-----------------||
3||------------------|-----------------|-6-4-------------|---------7---7---||
4||------------------|-----------------|-----6-4~----6-4-|---------7---7---||
5||------------------|-----------------|-----------------|-6-5~----5---5---||
6||-44442/4~--2-4444-|-2/4~--2-445-4-2-|-----------------|-----------------||


1||-----|----|-----------------|-----------------|-----|----|-----------------|
2||-----|----|-----------------|-----------------|-----|----|-----------------|
3||-----|----|-----------------|---------7---7---|-----|----|-6-4-------------|
4||-6---|----|-7-6-4-------7-6-|-4-------7---7---|-6---|----|-----6-4~----6-4-|
5||-6---|----|-5-4-2-4-----5-4-|-2-5-----5---5---|-6---|----|-----------------|
6||-4---|----|-------2---------|---3-------------|-4---|----|-----------------|

            |---------Artificial Harmonics---------|
1||-----------------|----------------|-----------------||-----------------|
2||-----------------|----------------|-----------------||-----------------|
3||-----------------|----------4-----|-6-----4-----5---||-----------------|
4||---------------4-|----6-----------|-----------------||-----------------|
5||-6-5~----6-------|----------------|-----------------||-4/6---4/6---4/6-|
6||-----------------|----------------|-----------------||-2/4---2/4---2/4-|


1||------------------|-----------------||-----------------|-----------------||
2||------------------|-----------------||-----------------|-----------------||
3||------------------|-----------------||-----------------|-7---7---7---7---||
4||------------------|-----------------||-7---------------|-7---7---7---7---||
5||---4/6---4/6---4/-|/6---4/6---4/6---||-7---------------|-5---5---5---5---||
6||---2/4---2/4---2/-|/4---2/4---2/4---||-5---------------|-----------------||


1||-----------------|-----------------|-----------------|-----------------||
2||-----------------|-----------------|-----------------|-----------------||
3||-----------------|-----------------|-----------------|-----------------||
4||-----------------|-----------------|-----------------|-----------------||
5||-6/8-------------|-----------------|-6/8---6/8---6/8-|---6/8---6/8-----||
6||-4/6-6-6-6-6-6-6-|-6-6-6-6-6-6-6-6-|-4/6---4/6---4/6-|---4/6---4/6-----||


1||-----------------|-----------------|-----------------|-----------------||
2||-----------------|-----------------|-----------------|-----------------||
3||-----------------|-----------------|-----------------|-----------------||
4||-4/6-------------|-----------------|-----------------|---------2-------||
5||-2/4-4-4-4-4-4-4-|-4-4-4-4-4-4-4-4-|-2h4-4-2h4-4-2h4-|-4-2h4-4---5~----||
6||-----------------|-----------------|-----------------|-----------------||

   (Also played beneath solo)
1||-----------------|-----------------|-----------------|-----------------|
2||-----------------|-----------------|-----------------|-----------------|
3||---------12-\----|---------11-\----|---------12-\----|-----------------|
4||---------12-\----|---------11-\----|---------12-\----|-----------------|
5||---------10-\----|----------9-\----|---------10-\----|-----5---7---5---|
6||-0-0-------------|-0-0-----------0-|-0-0-------------|---7---7---7---7-|


1||--------------|---------------|--------------|-----------------||-----------------||
2||--------------|---------------|--------------|-----------------||-----------------||
3||-------12-\---|-------11-\----|-------10-\---|-----------------||-----------------||
4||-------12-\---|-------11-\----|-------10-\---|-----------------||-----5-------7---||
5||-------10-\---|--------9-\----|--------8-\---|-----1---3---1---||-23333---35555---||
6||-0-0----------|-0-0---------0-|-0-0----------|---3---3---3---3-||-----------------||


1||-------------------|------------------|------------------|-----------------|
2||-------------------|------------------|------------------|-----------------|
3||---------12-\----9-|--------11-\----9-|--------12-\----9-|-----------------|
4||---------12-\----9-|--------11-\----9-|--------12-\----9-|-----------------|
5||---------10-\----7-|---------9-\----7-|--------10-\----7-|-----5---7---5---|
6||-00000000----------|--000000----------|--000000----------|---7---7---7---7-|


1||-------------------|------------------|------------------|-----------------||
2||-------------------|------------------|------------------|-----------------||
3||---------12-\----9-|--------11-\----9-|--------10-\----9-|-----------------||
4||---------12-\----9-|--------11-\----9-|--------10-\----9-|-----------------||
5||---------10-\----7-|---------9-\----7-|---------8-\----7-|-----1---3---1---||
6||-00000000----------|--000000----------|--000000----------|---3---3---3---3-||


1||-----|-------------------|-------------------|
2||-----|-------------------|-------------------|
3||-9---|-------------------|-------------------|
4||-9---|-------------------|-------------------|
5||-7---|-3--3--3--5--5--5--|-3--3--3--5--5--5--|
6||-----|-1--1--1--3--3--3--|-1--1--1--3--3--3--|


1||-----------------|----------------|----------------|-----------------|
2||-----------------|----------------|----------------|-----------------|
3||-----------------|----------------|----------------|-----------------|
4||-----------------|----------------|----------------|-----------------|
5||---------6\----2-|--------4\----2-|--------6\----2-|---3-------5-----|
6||-0-0000003\----0-|--0000003\----0-|--0000003\----0-|---1-------3-----|


1||-----------------|----------------|-----------------|-----------------||
2||-----------------|----------------|-----------------|-----------------||
3||-----------------|----------------|-----------------|-----------------||
4||-----------------|----------------|-----------------|-----------------||
5||---------6\----2-|--------4\----2-|-5-----5-----5---|---7---7---8---8-||
6||-000000003\----0-|--0000003\----0-|-3-3-3-3-3-3-3-3-|-5-5-5-5-6-6-6-6-||


1||-----------------|----------------|-----------------|------------------|
2||-----------------|----------------|-----------------|------------------|
3||-----------------|----------------|-----------------|------------------|
4||-----------------|----------------|-----------------|---8-------10-----|
5||-2-------6\------|-2-------4\-----|-2-------6\------|---9-------11-----|
6||-0-0-0-0-3\------|-0-0-0-0-3\-----|-0-0-0-0-3\------|---6--------8-----|


1||-----------------|----------------|-----------------|------------------|
2||-----------------|----------------|-----------------|------------------|
3||-----------------|----------------|-----------------|------------------|
4||-----------------|----------------|-----------------|------------------|
5||-2-------6\------|-2-------4\-----|-5-----5-----5---|------------------|
6||-0-0-0-0-3\------|-0-0-0-0-3\-----|-3-3-3-3-3-3-3-3-|-5555555566666666-|


1||-----------------|----------------|----------------|-----------------|
2||-----------------|----------------|----------------|-----------------|
3||-----------------|----------------|----------------|-----------------|
4||-----------------|----------------|----------------|-----------------|
5||---------6\----2-|--------4\----2-|--------6\----2-|---3-------5-----|
6||-0-0-00003\----0-|--0-00003\----0-|--0-00003\----0-|---1-------3-----|


1||-----------------|----------------|-----------------|------------------|------||
2||-----------------|----------------|-----------------|------------------|------||
3||-----------------|----------------|-----------------|------------------|------||
4||-----------------|----------------|-----------------|------------------|------||
5||---------6\----2-|--------4\----2-|-5-----5-----5---|------------------|-2----||
6||-0-0-00003\----0-|--0-00003\----0-|-3-3-3-3-3-3-3-3-|-5555556666665555-|-0----||





Comments


Popular Pantera tabs & chords
By Demons Be Driven 3 Bass Tabs
Im Broken 4 Bass Tabs
The Underground In America Bass Tabs
Cemetery Gates Chords
25 Years 1 Tabs
Cowboys From Hell 4 Tabs
I'll Be Alright Tabs
Mouth For War Tabs
Rise 1 Tabs
This Love Tabs


Song lyrics



↑ Back to top | Tablatures and chords are parodies/interpretations of the original songs. You may use it for private study, scholarship, research or language learning purposes only
© 2014 AZChords.com Contact us | Privacy policy | DMCA | Add/correct tabs | Request tabs | Top 50 tabs