>
 >
Cemetery Gates 5

Cemetery Gates 5 Bass Tabs

Pantera - Cemetery Gates 5 chords, tabs, tablatures, lyrics

Guitar lessons | Add/correct | Request | Top 50 tabs Artists:  A B C D E F G H I J K L M N O P Q R S T U V W X Y Z 0-9

Cemetery Gates 5 Bass Tabs – Pantera

CD, Sheet music, Poster

Do you like Cemetery Gates 5? Share with your friends now
Bass TabsBass Tabs v2Bass Tabs v3Bass Tabs v4Bass Tabs v5ChordsChords v2Chords v3TabsTabs v2Tabs v3Tabs v4Tabs v5Ukulele
                           Cemetery Gates                                  


Q=135
     H        E  E  E  E     H.           E  E     E  Q.     Q.     E   
G||-----------------------|---------------------|-----9------L---------|
D||-----------------------|---------------------|----------------------|
A||-----------------------|------------------7--|--L----------------5--|
E||--2--------2--0--2--5--|--L------------L-----|----------------------|


  Q.     E  E  E  E  E     E  E  Q    Q.     E     H.           E  E   
------------------------|-----------------------|---------------------|
------------------------|-----------------------|---------------------|
--L------4--L-----------|-----------------------|------------------7--|
---------------7--5--0--|--2--2--2----2------5--|--L------------L-----|


  E  Q.     Q.     E     Q.     E  E  E  E  E     H.           E  E   
-----9------L---------|------------------------|---------------------|
----------------------|------------------------|---------------------|
--L----------------5--|--L------4--L-----------|---------------------|
----------------------|---------------7--5--0--|--2------------L--5--|


  H        E  E  E  E     H        E  E  E  E     Q.     E  E  E  E  E   
-----------------------|-----------------------|------------------------|
-----------------------|-----------------------|------------------------|
-----------------------|--------------------5--|--L------4--L-----------|
--L--------4--5--7--0--|--L--------5--4--0-----|---------------7--5--0--|


  H        Q.     E     H        E  E  E  E     H        Q    E  E   
---------------------|-----------------------|----------------------|
---------------------|-----------------------|----------------------|
---------------------|-----------------------|-----------7----7--5--|
--2--------2------5--|--L--------4--5--7--0--|--L-------------------|


  Q    E  E  E  E  E  E     H.           E  E     H        E  E  E  E   
-------------------------|---------------------|-----------------------|
-------------------------|---------------------|-----------------------|
--L----5--4--L-----------|---------------------|-----------------------|
----------------7--5--0--|--2------------L--5--|--L--------4--5--7--0--|


  H        E  E  E  E     Q.     E  E  E  E  E     H.           E  E   
-----------------------|------------------------|---------------------|
-----------7--6--------|------------------------|---------------------|
-----------------7--5--|--L------4--L-----------|---------------------|
--L--------------------|---------------7--5--0--|--2------------L--5--|


  H        E  E  E  E     E  Q.     Q.     E     W                 
-----------------------|-----9------L---------|-------------------|
-----------------------|----------------------|-------------------|
-----------------------|-------------------5--|--L----------------|
--L--------4--5--7--0--|--L-------------------|-------------------|


  Q.      E  E   E   E   E     W                   W                 
---------16--L--13--16--18--|-------------------|-------------------|
----------------------------|-------------------|-------------------|
--L-------------------------|-------------------|-------------------|
----------------------------|-------------------|-------------------|


  W                   W                   W                   W                 
-------------------|-------------------|-------------------|-------------------|
-------------------|-------------------|-------------------|-------------------|
-------------------|-------------------|-------------------|-------------------|
-------------------|-------------------|-------------------|-------------------|


  W                   W                   W                 
-------------------|-------------------|-------------------|
-------------------|-------------------|-------------------|
-------------------|-------------------|-------------------|
-------------------|-------------------|-------------------|


  H        E  E  E  E     H.           E  E     H.           E  E   
-----------------------|---------------------|---------------------|
-----------------------|---------------------|---------------------|
--------------2--4-----|---------------------|---------------------|
--------------------0--|--2------------L--5--|--L------------5--0--|


  E  Q.     Q.     E     Q.     E  E  E  E  E     H.           E  E   
-----9------L---------|------------------------|---------------------|
----------------------|------------------------|---------------------|
-------------------5--|--L------4--L-----------|---------------------|
--L-------------------|---------------7--5--0--|--2------------L--5--|


  H        E   E    E   E     E   Q.     Q.     E     W                 
--------------16h--18--16--|--L--------------------|-------------------|
---------------------------|-----14------L------0--|--L----------------|
---------------------------|-----------------------|-------------------|
--L--------L---------------|-----------------------|-------------------|


  Q.      E  E   E   E   E     Q    Q    H           W                 
---------16--L--13--16--18--|--L------------------|-------------------|
--L-------------------------|---------------------|-------------------|
----------------------------|---------------------|-------------------|
----------------------------|---------------------|-------------------|


  W                   E  E  E  E  E  E  E   E     E  E  E  E  Q    Q      
-------------------|---------------------------|-------------------------|
-------------------|---------------------------|--------------3----------|
-------------------|---------------------------|-------------------------|
-------------------|--5--5--5--5--5--5--5S--1--|--1--1-----1-------1S----|


  E  E  E  E  E  E  E  E     Q    E  E  E  E  Q      
--------------------------|-------------------------|
--------------------------|-------------------------|
-----------------7--6--7--|--8----6--7-----6--------|
--5--5--5--5--5-----------|-------------8-----7~----|


  E  E  E  E  E  E  E   E     E  E  E  E  Q    Q      
---------------------------|-------------------------|
---------------------------|--------------3----------|
---------------------------|-------------------------|
--5--5--5--5--5--5--5S--1--|--1--1-----1-------1S----|


  E  E  E  E  E  E  E  E     Q    E  E  E  E  Q      
--------------------------|-------------------------|
--------------------------|-------------------------|
-----------------7--6--7--|--8----6--7-----6--------|
--5--5--5--5--5-----------|-------------8-----7~----|


  E  E  E  E  E  E  E   E     E  E  E  E  Q    Q      
---------------------------|-------------------------|
---------------------------|--------------3----------|
---------------------------|-------------------------|
--5--5--5--5--5--5--5S--1--|--1--1-----1-------1S----|


  E  E  E  E  E  E  E  E     Q    E  E  E.   S E  E   
--------------------------|--------------------------|
--------------------------|--------------------------|
-----------------7--6--7--|--8----6--7---------------|
--5--5--5--5--5-----------|-------------8S---0-L--1--|


                                            3          3  
  E  E  E  E  E  E  E  E     E  E  E  E   S E  S E  E  S  
--------------------------|------------------------------|
--------------------------|------------------------------|
-----------------------2--|--2--2--2--3S-----------------|
--2--2--2--5--5--5--5-----|--------------------0-L--1--L-|


  E  E  E  E  E  E  E  E     E  E  E  E  S S E  S E.   
--------------------------|---------------------------|
--------------------------|---------------------------|
--------------------------|--2--2--2--3--L------------|
--2--2--2--5--5--5--5--7--|------------------0----1---|


  E  E  E  E  E  E  E  E     E  E  E  E   S S E.  E.   
--------------------------|---------------------------|
--------------------------|---------------------------|
-----------------------2--|--2--2--2--3S--------------|
--2--2--2--5--5--5--5-----|-------------------0---1---|


  E  E  E  E  E  E  E  E     E  E  E  E  S S E  S E.     W                 
--------------------------|---------------------------|-------------------|
--------------------------|---------------------------|-------------------|
--------------------------|--2--2--2--3--L------------|-------------------|
--2--2--2--5--5--5--5--7--|------------------0----1---|--2----------------|


  H.           E  E     Q    Q    Q.     E     Q    Q    Q.     E   
---------------------|----------------------|----------------------|
---------------------|----------------------|----------------------|
---------------------|----------------------|-------------------5--|
--2------------L--5--|--L----5----L------0--|--L----0----L---------|


  Q.     E  E  E  E  E     H        Q     E  E     H        E  E  E  E   
------------------------|-----------------------|-----------------------|
------------------------|-----------------------|-----------------------|
--L------4--L-----------|-----------------------|-----------------------|
---------------7--5--0--|--2--------0h----2--5--|--L--------4--5--7--0--|


  Q    Q    E  E  E  E     E  E  E  E  E  E  E  E     H        Q    E  E   
------------------------|--------------------------|----------------------|
------------------------|--------------------------|----------------------|
------------------------|-----5-----4--------------|----------------------|
--L----0----4--5--4-----|-----------------7--5--0--|--2--------0----2--5--|


  Q    Q    E  E  E  E     Q    Q    E  E  E  E     E  Q    S  S  E  E  E  E   
------------------------|------------------------|----------------------------|
------------------------|------------------------|----------------------------|
------------------------|---------------------5--|--L--5----4h-5p-4-----------|
--L----5----4-----4--0--|--L----0----4--5--4-----|-------------------7--5--0--|


  H        Q    E  E     Q    Q    E  E  E  E     E  E  E  E  E  E  E  E   
----------------------|------------------------|--------------------------|
----------------------|------------------------|--------------------------|
----------------------|---------------------4--|--L-----------------------|
--2--------0----2--5--|--L----5----4--5--7-----|-----0--0--0--0--0--0--0--|


  E  E  E  E  E  E  E  E     Q    Q    E  S  S E  E   
--------------------------|--------------------------|
--------------------------|--------------------7-----|
--5--5-----5--4--4--------|---------------4S-5-------|
--------------------0--0--|--2----2----2----------5--|


  Q    E  E  E  S  S E  E     E  E  E  E  E  S  S E  E   
---------------------------|----------------------------|
-------7--7----------7-----|----------------------7-----|
----------------4S-5-------|-----------------4S-5----5--|
--5---------------------0--|--L--0--0--0--L-------------|


  E  E  E  E  E  E  E  E     Q    Q    E  S  S E  E   
--------------------------|--------------------------|
--------------------------|--------------------7-----|
--L--5--5--4--L--4--4-----|---------------4S-5-------|
-----------------------0--|--2----2----2----------5--|


  Q    E  E  E  S  S E  E     E  E  E  E  E  S  S E  E   
---------------------------|----------------------------|
-------7--7----------7-----|----------------------7-----|
----------------4S-5-------|-----------------4S-5----5--|
--5---------------------0--|--L--0--0--0--L-------------|


  E  E  E  E  E  E  E  E     Q    Q    E  S  S E  E   
--------------------------|--------------------------|
--------------------------|--------------------7-----|
--L--5--5--4--L--4--4-----|---------------4S-5-------|
-----------------------0--|--2----2----2----------5--|


  E  E  E  E  E  S  S E  E     E  E  E  E  E  S  S E  E   
----------------------------|----------------------------|
-----7--7--7--L-------7-----|----------------------7-----|
-----------------4S-5-------|-----------------4S-5----5--|
--L----------------------0--|--L--0--0--0--L-------------|


  E  E  E  E  E  E  E  E     Q    Q    E  S  S E  E   
--------------------------|--------------------------|
--------------------------|--------------------7-----|
--L--5--5--4--L--4--4--L--|---------------4S-5-------|
--------------------------|--2----2----2----------5--|


  E  E  E  E  E  S  S E  E     E  E  E  E  E  S  S Q     
----------------------------|---------------------------|
--------7--7----------7-----|----------------------7----|
-----------------4S-5-------|-----------------4S-5------|
--L--5--------5----------0--|--L--0--0--0--0------------|


  E  E  E  E  E  E  E  E     Q.     E  H           E  E  E  E  E  E  E   E   
--------------------------|---------------------|---------------------------|
--------------------------|---------------------|---------------------------|
--5--5--5--4--------------|---------------------|---------------------------|
-----------------4-----4--|--5------L-----------|--5--5--5--5--5--5--5S--1--|


  E  E  E  E  Q    Q        E  E  E  E  E  E  E  E     Q    E  E  E  E  Q      
-------------------------|--------------------------|-------------------------|
--------------3----------|--------------------------|-------------------------|
-------------------------|-----------------7--6--7--|--8----6--7-----6--------|
--1--1-----1-------1S----|--5--5--5--5--5-----------|-------------8-----7~----|


  E  E  E  E  E  E  E   E     E  E  E  E  Q    Q      
---------------------------|-------------------------|
---------------------------|--------------3----------|
---------------------------|-------------------------|
--5--5--5--5--5--5--5S--1--|--1--1-----1-------1S----|


  E  E  E  E  E  E  E  E     Q    E  E  E.   S E  E   
--------------------------|--------------------------|
--------------------------|--------------------------|
-----------------7--6--7--|--8----6--7---------------|
--5--5--5--5--5-----------|-------------8S---0-L--1--|


  E  E  E  E  E  E  E  E     E  E  E  E   E  E.  E.   
--------------------------|--------------------------|
--------------------------|--------------------------|
-----------------------2--|--2--2--2--3S-------------|
--2--2--2--5--5--5--5-----|------------------0---1---|


  E  E  E  E  E  E  E  E     E  E  E  E  E  E  S E.   
--------------------------|--------------------------|
--------------------------|--------------------------|
--------------------------|--2--2--2--3--------------|
--2--2--2--5--5--5--5--7--|-----------------0----1---|


  E  E  E  E  E  E  E  E     E  E  E  E   E  E.  E.   
--------------------------|--------------------------|
--------------------------|--------------------------|
-----------------------2--|--2--2--2--3S-------------|
--2--2--2--5--5--5--5-----|------------------0---1---|


  E  E  E  E  E  E  E  E     E  E  E  E  E  E  S E.     W                 
--------------------------|--------------------------|-------------------|
--------------------------|--------------------------|-------------------|
--------------------------|--2--2--2--3--------------|-------------------|
--2--2--2--5--5--5--5--7--|-----------------0----1---|--2----------------|


  H.           E  E     Q    Q    Q.     E     Q    Q    Q.     E   
---------------------|----------------------|----------------------|
---------------------|----------------------|----------------------|
---------------------|----------------------|-------------------5--|
--2------------L--5--|--L----5----L------0--|--L----0----L---------|


  Q.     E  E  E  E  E     H        Q     E  E     H        E  E  E  E   
------------------------|-----------------------|-----------------------|
------------------------|-----------------------|-----------------------|
--L------4--L-----------|-----------------------|-----------------------|
---------------7--5--0--|--2--------0h----2--5--|--L--------4--5--7--0--|


  Q    Q    E  E  E  E     E  E  E  E  E  E  E  E     H        Q    E  E   
------------------------|--------------------------|----------------------|
------------------------|--------------------------|----------------------|
------------------------|-----5-----4--------------|----------------------|
--L----0----4--5--4-----|-----------------7--5--0--|--2--------0----2--5--|


  Q    Q    E  E  E  E     Q    Q    E  E  E  E     E  Q    E  E  E  E  E   
------------------------|------------------------|-------------------------|
------------------------|------------------------|-------------------------|
------------------------|---------------------5--|-----5----4--L-----------|
--L----5----4-----4--0--|--L----0----4--5--4-----|----------------7--5--0--|


  Q.     E  E  E  E  E     Q    Q    E  E  E  E     E  E  E  E  E  E  E  E   
------------------------|------------------------|--------------------------|
------------------------|------------------------|--------------------------|
------------------------|---------------------4--|--L-----------------------|
--2------0--2--0--2--5--|--L----5----4--5--7-----|-----0--0--0--0--0--0--0--|


  E  E  E  E  E  E  E  E     Q    Q    E  S  S E  E   
--------------------------|--------------------------|
--------------------------|--------------------7-----|
--5--5-----5--4--4--------|---------------4S-5-------|
--------------------0--0--|--2----2----L----------5--|


  E  E  Q    E  S  S E  E     E  E  E  E  E  S  S E  E   
---------------------------|----------------------------|
---------------------7-----|----------------------7-----|
----------------4S-5-------|-----------------4S-5----5--|
--L--5--5----L----------0--|--L--0--0--0--L-------------|


  E  E  E  E  E  E  E  E     Q    Q    E  S  S E  E   
--------------------------|--------------------------|
--------------------------|--------------------7-----|
--L--5--5--4--L--4--4-----|---------------4S-5-------|
-----------------------0--|--2----2----L----------5--|


  E  E  E  E  E  S  S E  E     E  E  E  E  E  S  S E  E   
----------------------------|----------------------------|
-----7--7--7--7-------7-----|----------------------7-----|
-----------------4S-5-------|-----------------4S-5----5--|
--5----------------------0--|--L--0--0--0--L-------------|


  E  E  E  E  E  E  E  E     Q    Q    E  S  S E  E   
--------------------------|--------------------------|
--------------------------|--------------------7-----|
--L--5--5--4--L--4--4-----|---------------4S-5-------|
-----------------------0--|--2----2----2----------5--|


  E  E  E  E  E  S  S E  E     E  E  E  E  E  S  S E  E   
----------------------------|----------------------------|
----------------------7-----|----------------------7-----|
-----------------4S-5-------|-----------------4S-5----5--|
--L--5--5--5--5----------0--|--L--0--0--0--L-------------|


  E  E  E  E  E  E  E  E     Q    Q    E  S  S E  E   
--------------------------|--------------------------|
--------------------------|-------4------------7-----|
--L--5--5--4--L--4--4-----|---------------4S-5-------|
-----------------------0--|--2---------2----------5--|


  E  E  E  E  E  S  S E  E     E  E  E  E  E  S  S Q     
----------------------------|---------------------------|
--------7--7----------7-----|----------------------7----|
-----------------4S-5-------|-----------------4S-5------|
--L--5--------5----------0--|--L--0--0--0--0------------|


  E  E  E  E  E  E  E  E     Q.     E  H           E  E  E  E  E  E  E   E   
--------------------------|---------------------|---------------------------|
--------------------------|---------------------|---------------------------|
--5--5--5--4--------------|---------------------|---------------------------|
-----------------4-----4--|--5------L-----------|--5--5--5--5--5--5--5S--1--|


  E  E  E  E  Q    Q        E  E  E  E  E  E  E  E     Q    E  E  E  E  Q      
-------------------------|--------------------------|-------------------------|
-------------------------|--------------------------|-------------------------|
--------------8----------|-----------------7--6--7--|--8----6--7-----6--------|
--1--1-----1-------1S----|--5--5--5--5--5-----------|-------------8-----7~----|


  E  E  E  E  E  E  E   E     E  E  E  E  Q    Q      
---------------------------|-------------------------|
---------------------------|--------------3----------|
---------------------------|-------------------------|
--5--5--5--5--5--5--5S--1--|--1--1-----1-------1S----|


  E  E  E  E  E  E  E  E     Q    E  E  E  E  Q      
--------------------------|-------------------------|
--------------------------|-------------------------|
-----------------7--6--7--|--8----6--7-----6--------|
--5--5--5--5--5-----------|-------------8-----7~----|


  E  E  E  E  E  E  E   E     E  E  E  E  Q    Q      
---------------------------|-------------------------|
---------------------------|--------------3----------|
---------------------------|-------------------------|
--5--5--5--5--5--5--5S--1--|--1--1-----1-------1S----|


  E  E  E  E  E  E  E  E     Q    E  E  E  E  Q      
--------------------------|-------------------------|
--------------------------|-------------------------|
-----------------7--6--7--|--8----6--7-----6--------|
--5--5--5--5--5-----------|-------------8-----7~----|


  E  E  E  E  E  E  E   E     E  E  E  E  Q    Q      
---------------------------|-------------------------|
---------------------------|--------------3----------|
---------------------------|-------------------------|
--5--5--5--5--5--5--5S--1--|--1--1-----1-------1S----|


                             |----3----|    |----3----|     
  E  E  E  E  E  E  E  E     Q    Q    Q    Q    Q    Q     
--------------------------|--------------------------------|
--------------------------|--------------------------------|
-----------------7--6--7--|--------------------------------|
--5--5--5--5--5-----------|--5----0----1----5----0----1----|


  |-----3----|    |-----3----|                                                  
  E  E  Q    Q    E  E  Q    Q       H.           E  E     Q    Q    Q.     E   
----------------------------------|---------------------|----------------------|
----------------------------------|---------------------|----------------------|
----------------------------------|---------------------|----------------------|
--5--5--0----1----5--5--0----1----|--2------------L--5--|--L----5----L------0--|


  Q    Q    E  E  E  E     Q.     E  E  E  E  E     E  E  E  E  E  E  E  E   
------------------------|------------------------|--------------------------|
------------------------|------------------------|--------------------------|
---------------------5--|--L------4--L-----------|--------------------------|
--L----0----4--7--4-----|---------------7--5--0--|--2--2--2--2--0--2--2--5--|


  Q    E  E  E  E  E  E     Q    Q    E  E  E  E     Q.     E  E  E  E  E   
-------------------------|------------------------|------------------------|
-------------------------|------------------------|------------------------|
-------------------------|---------------------5--|--L------4--L-----------|
--L----5--5--4--5--7--0--|--L----0----4--5--4-----|---------------7--5--0--|


  Q    E  E  E  E  E  E     Q    Q    E  E  E  E     Q    Q    Q.     E   
-------------------------|------------------------|----------------------|
-------------------------|------------------------|----------------------|
-------------------------|------------------------|------------7---------|
--2----2--2--0--0--2--5--|--L----5----4--5--7-----|-------0-----------0--|


  E  Q    E  E  E  E  E     H        E  E  E  E     Q    Q    E  E  Q     
-------------------------|-----------------------|-----------------------|
-------------------------|-----------------------|-----------------------|
--5--5----4--L-----------|-----------------------|-----------------------|
----------------7--5--0--|--2--------0--0--2--5--|--L----5----4--5--7----|


  E  E  E  E  E  E  E  E     E  E  E  E  E.  S E  E   
--------------------------|--------------------------|
--------------------------|--------------------------|
--7--7--7--7--7--7--7--7--|--5--5--5--5--4-----------|
--------------------------|------------------0-L--1--|


  E  E  E  E  E  E  E  E     E  E  E  E  E  E.  E.     E  E  E  E  E  E  E  E   
--------------------------|-------------------------|--------------------------|
--------------------------|-------------------------|--------------------------|
-----------------------2--|--2--2--2--3-------------|--------------------------|
--2--2--2--5--5--5--5-----|-----------------0---1---|--2--2--2--5--5--5--5--7--|


              3   3 3   3 3   3                             
  E  E  E  E  E.  S E.  S E.  S    E  E  E  E  E  E  E  E   
--------------------------------|--------------------------|
--------------------------------|--------------------------|
--------------3-----2-----------|-----------------------2--|
--7--7--7--7--------------5-----|--2--2--2--5--5--5--5-----|


  E  E  E  E  E  E.  E.     E  E  E  E  E  E  E  E   
-------------------------|--------------------------|
-------------------------|--------------------------|
--2--2--2--3-------------|--------------------------|
-----------------0---1---|--2--2--2--5--5--5--5--7--|


              |----3----|                                  
  E  E  E  E  Q    Q    Q       E  E  S S E  E  E  S S E   
-----------------------------|----------------------------|
-----------------------------|----------------------------|
--------------3----2---------|-------------------------2--|
--7--7--7--7------------5----|--2--2--2-2-5--5--5--5-5----|


  E  E  S S E  E  S E  E.     E  E  S S E  E  E  S S E   
---------------------------|----------------------------|
---------------------------|----------------------------|
--2--2--2-2-3--------------|----------------------------|
------------------0-L--1---|--2--2--2-2-5--5--5--5-5-7--|


  E  S S E  S S E.  S E  E     E  E  S S E  E  E  S S E   
----------------------------|----------------------------|
----------------------------|----------------------------|
--2--2-2-2--2-2-3---2-L-----|-------------------------2--|
-------------------------5--|--2--2--2-2-5--5--5--5-5----|


  E  E  S S E  E  S E  E.     E  E  S S E  E  E  S S E   
---------------------------|----------------------------|
---------------------------|----------------------------|
--2--2--2-2-3--------------|-------------------------2--|
------------------0-L--1---|--2--2--2-2-5--5--5--5-5----|


  E  S S E  S S E  S S E  E  E  S S E  E  Q       E  E  E  E  E  E  E   E   
-----------------------------------------------|---------------------------|
-----------------------------------------------|---------------------------|
--2--2-2-2--2-2-3----2-L--0--3----2-L--0-------|---------------------------|
-----------------------------------------------|--5--5--5--5--5--5--5S--1--|


  E  E  E  E  Q    Q        E  E  E  E  E  E  E  E     Q    E  E  E  E  Q      
-------------------------|--------------------------|-------------------------|
--------------3----------|--------------------------|-------------------------|
-------------------------|-----------------7--6--7--|--8----6--7-----6--------|
--1--1-----1-------1S----|--5--5--5--5--5-----------|-------------8-----7~----|


  E  E  E  E  E  E  E   E     E  E  E  E  Q    Q      
---------------------------|-------------------------|
---------------------------|--------------3----------|
---------------------------|-------------------------|
--5--5--5--5--5--5--5S--1--|--1--1-----1-------1S----|


  E  E  E  E  E  E  E  E     Q    E  E  E  E  Q      
--------------------------|-------------------------|
--------------------------|-------------------------|
-----------------7--6--7--|--8----6--7-----6--------|
--5--5--5--5--5-----------|-------------8-----7~----|


  E  E  E  E  E  E  E   E     E  E  E  E  Q    Q      
---------------------------|-------------------------|
---------------------------|--------------3----------|
---------------------------|-------------------------|
--5--5--5--5--5--5--5S--1--|--1--1-----1-------1S----|


  E  E  E  E  E  E  E  E     Q    E  E  E  E  Q      
--------------------------|-------------------------|
--------------------------|-------------------------|
-----------------7--6--7--|--8----6--7-----6--------|
--5--5--5--5--5-----------|-------------8-----7~----|


  E  E  E  E  E  E  E   E     E  E  E  E  Q    Q      
---------------------------|-------------------------|
---------------------------|--------------3----------|
---------------------------|-------------------------|
--5--5--5--5--5--5--5S--1--|--1--1-----1-------1S----|


                             |----3----|    |----3----|                         
  E  E  E  E  E  E  E  E     Q    Q    Q    Q    Q    Q       W                 
--------------------------|--------------------------------|-------------------|
--------------------------|--------------------------------|-------------------|
-----------------7--6--7--|--------------------------------|-------------------|
--5--5--5--5--5-----------|--5----0----1----5----0----1----|-------------------|


  E  E  E  E  E  E  E   E     E  Q    E  Q    Q       E  E  E  E  E  E  E  E   
---------------------------|-----------------------|--------------------------|
---------------------------|-------------3---------|--------------------------|
---------------------------|-----------------------|--------------------------|
--5--5--5--5--5--5--5S--1--|--1--1----1-------5----|--5--5--5--5--5--5--5--1--|


  E  Q    E  Q    E  E     E  E  E  E  E  E  E   E     E  E  E  E  Q    E  E    
------------------------|---------------------------|--------------------------|
------------------------|---------------------------|--------------------------|
-------------4----3-----|---------------------------|--------------------------|
--1--1----1----------5--|--5--5--5--5--5--5--5S--1--|--1--1-----1--1----1--1S--|


  E  E  E  E  E  E  E  E     W                    E  E  E  E  E  E   E  E   
--------------------------|--------------------|---------------------------|
--------------------------|--------------------|---------------------------|
-----------------7--6--7--|--8~----------------|---------------------------|
--5--5--5--5--5-----------|--------------------|--5--5--5--5--5--5S-----1--|


  E  E  E  E  Q    Q        E  E  E  E  E  E  E  E     E.  S S E.  S E.  Q     
-------------------------|--------------------------|-------------------------|
--------------3----------|--------------------------|-------------------------|
-------------------------|-----------------7--6--7--|--8---x-6-----6----------|
--1--1-----1-------1S----|--5--5--5--5--5-----------|----------8-----7---L----|


  E  E  E  E  E  E  E  E     E  Q    E  Q    E  E    
--------------------------|-------------------------|
--------------------------|-------------------------|
--------------------------|-------------------------|
--5--5--5--5--5--5-----1--|--1--1----1--1----1--1S--|


  E  E  E  E  E  E  E   E     E  E  E  E  E  E  Q      
---------------------------|--------------------------|
---------------------------|--------------------------|
---------------------------|--------------------------|
--5--5--5--5--5--5--5S--1--|--1--1--1--1--3--1--3S----|


  E  E  E  E  E  Q     E     E  E  E  E  E  E  E  E    
--------------------------|---------------------------|
--------------------------|-----3---------------------|
--------------------------|-----------------5---------|
--5--5--5--5--5--5S----1--|--1-----1--1--3-----3--3S--|


  E  E  E  E  E  E  E  E     E  E  E  E  E  E  E  E   
--------------------------|-----------------7--------|
--------------------------|-----3--------5-----5--7--|
--------------------------|--------3--5--------------|
--5--5--5--5--5--5--5--1--|--1-----------------------|


  E  E  E  E  E  E  E   E     E  E  E  E  Q    E  E   
---------------------------|-------------------------|
---------------------------|-------------------------|
---------------------------|--------------3----5-----|
--5--5--5--5--5--5--5S--1--|--1--1-----1----------3--|


                                 Fade out               
  E  E  E  E  E  E  E   E     E  Q.       E  E  E  E    
---------------------------|--------------------------||
---------------------------|--------------------------||
---------------------------|-----------------5--------||
--5--5--5--5--5--5--5S--1--|-----1--------3-----3--5--||




Duration Legend
---------------
W - whole
H - half
Q - quarter
E - 8th
S - 16th
T - 32nd
X - 64th
. - note dotted
|-n-|  - n-tuplets


Tablature Legend
----------------
L - tied note
x - dead note
g - grace note
(n) - ghost note
> - accentuded note
NH - natural harmonic
AH - artificial harmonic
TH - tapped harmonic
SH - semi harmonic
PH - pitch harmonic
h - hammer on
p - pull off
b - bend
br - bendRelease
pb - preBend
pbr - preBendRelease
brb - bendReleaseBend
\n/ - tremolo bar dip
\n - tremolo bar dive
-/n - tremolo bar Release up
/n\ - tremolo bar inverted dip
/n - tremolo bar return
-\n - tremolo bar Release down
S - shift slide
s - legato slide
/ -  slide into from below or out of upwards
\ -  slide into from above or out of downwards
~ - vibrato
W - wide vibrato
tr - trill
TP - tremolo picking
T - tapping
S - slap
P - pop
< - fade in
^ - brush up
v - brush down
   





Comments


Popular Pantera tabs & chords
By Demons Be Driven Bass Tabs
Cant Hide 2 Bass Tabs
Walk 2 Drum Tabs
A New Level Of Confidence 1 Tabs
By Demons Be Driven Tabs
Heavy Metal Rules (Intro) Tabs
It Makes Them Disappear Tabs
Medicine Man Tabs
Sandblasted Skin Tabs
Suicide Note Part 1 Tabs


Song lyrics



↑ Back to top | Tablatures and chords are parodies/interpretations of the original songs. You may use it for private study, scholarship, research or language learning purposes only
© 2014 AZChords.com Contact us | Privacy policy | DMCA | Add/correct tabs | Request tabs | Top 50 tabs