» » »

Pantera, Cemetery Gates Tabs (ver.3)

Artists:  A B C D E F G H I J K L M N O P Q R S T U V W X Y Z # 

Cemetery Gates Tabs (ver.3)

Pantera Tabs
 Rating:
4/5 (4 votes)
Cemetery Gates lessons Tabs too difficult? Try these video lessons and learn fast
1
                (Intro)
Pantera 
Cemetary Gates 
beginning


-----------------------------------------------0---
-----------2----------0-----------0----------2-----
---------2---2------4---4-------4---4------4-------
-------2----------2-------2---2-------2--0---------
-----4----------0----------------------------------
---2-----------------------0-----------------------

---------------------------------------------------
-2-------------2---------0-----------0-------------
---4---------2---2-----4---4-------4---4-----------
-----0-----2---------2-------2---2-------2---------
---------4---------0-------------------------------
-------2-----------------------0-------------------

--------------0------------------------------------
--------2------2-----------------------------------
------4---4------4---------------------------------
----0-------0------0-------------------------------
---------------------------------------------------
---------------------------------------------------
Then Repete a couple of times from begining 
---------------------------------------------------
---------------------------------------------------
---------------------------------------------------
---------------------------------------------------
---------------------------------------------------
---------------------------------------------------
            
Submit corrections

comments powered by Disqus
↑ Back to top | Pantera Tabs for Cemetery Gates. Lyrics for acoustic guitar and electric guitar. 1 Tablatures and chords are parodies/interpretations of the original songs. You may use it for private study, scholarship, research or language learning purposes only