» » »

All Over Tonight Tabs (ver.2)

Artists:  A B C D E F G H I J K L M N O P Q R S T U V W X Y Z # 

All Over Tonight Tabs (ver.2)

Pantera
Rating:
5/5 (1 vote)

Hard to play? Try these video lessons and learn fast.
                This is a Correction to the tab added by  Andrew Zara, I just figured out a lot more. 
corrections? Just feel free to message me

PM= Palm Mute
PH= Pinch Harmonics

INTRO
|---------------------------------|
|---------------------------------|
|---------------------------------|
|-2--------2----------------------|
|-2-hold---2-hold-----------------|
|-0--------0----------7/--12/-----|

|---------------------------------|
|--5-5--7-7--8-8--7-7-------------|
|--4-4--6-6--7-7--6-6-------------|
|---------------------------------|
|---------------------------------|
|-----------------------0-0-0-0---|
PM                      . . . .

|-----------------------------|
|--5-5--7-7--8-8--------------|
|--4-4--6-6--7-7----9--7------|
|-------------------7--5------|
|-----------------------------|
|-----------------------------|

|---------------------------------|
|--5-5--7-7--8-8--7-7-------------|
|--4-4--6-6--7-7--6-6-------------|
|---------------------------------|
|---------------------------------|
|-----------------------0-0-0-0---|
PM                      . . . .

|-----------------------------|
|--5-5--7-7--8-8--------------|
|--4-4--6-6--7-7----9--7------|
|-------------------7--5------|
|-----------------------------|
|-----------------------------|

Verse 1: (Acoustic with Lots of Reverb or somethin’)
|----------------------------------------------------------|
|--5-----7-----8-----7---6-----5-----7-----8------8--6-----|
|----7-----7-----7-----7---7-----7-----7-----7-------------|
|------6-----6-----6---------------6-----6-----6-----------|
|----------------------------------------------------------|
|----------------------------------------------------------|

                                                  Add Distortion here
|------------------------------------------------------------------|
|--5-----7-----8-----7---6-----5-----7-----8------------9--7-------|
|----7-----7-----7-----7---7-----7-----7-----7----------7--5-------|
|------6-----6-----6---------------6-----6-----6-------------------|
|------------------------------------------------------------------|
|------------------------------------------------------------------|

Pre-chorus
|---------------------------------|
|--5-5--7-7--8-8--7-7-------------|
|--4-4--6-6--7-7--6-6-------------|
|---------------------------------|
|---------------------------------|
|-----------------------0-0-0-0---|
PM                      . . . .

|-----------------------------|
|--5-5--7-7--8-8--------------|
|--4-4--6-6--7-7----9--7------|
|-------------------7--5------|
|-----------------------------|
|-----------------------------|

|---------------------------------|
|--5-5--7-7--8-8--7-7-------------|
|--4-4--6-6--7-7--6-6-------------|
|---------------------------------|
|---------------------------------|
|-----------------------0-0-0-0---|
PM                      . . . .

|-----------------------|
|--5-5--7-7--8-8--7-7---|
|--4-4--6-6--7-7--6-6---|
|-----------------------|
|-----------------------|
|-----------------------|

CHORUS
|----------------------------------------------------------------|
|---------------------8--8-7-------------------------------------|
|---------7-------7---7--7-6-------------------------------------|
|---------5-------7----------------------------------------------|
|-----------------5-------------6br--5---5-6-5br--6br--5---5-6br-|
|--------------------------------------4-----------------4-------|
PH                              .   . . . .  .    .   . . . .

|----------------------------------------------------------------|
|---------------------8--8-7-------------------------------------|
|---------7-------7---7--7-6---4---------------------------------|
|---------5-------7------------4--hold chord then dive bomb------|
|-----------------5------------2---------------------------------|
|----------------------------------------------------------------|

|---------------------------------|
|--5-5--7-7--8-8--7-7-------------|
|--4-4--6-6--7-7--6-6-------------|
|---------------------------------|
|---------------------------------|
|-----------------------0-0-0-0---|
PM                      . . . .

|-----------------------------|
|--5-5--7-7--8-8--------------|
|--4-4--6-6--7-7----9--7------|
|-------------------7--5------|
|-----------------------------|
|-----------------------------|

Verse 2:
|----------------------------------------------------------|
|--5-----7-----8-----7---6-----5-----7-----8------8--6-----|
|----7-----7-----7-----7---7-----7-----7-----7-------------|
|------6-----6-----6---------------6-----6-----6-----------|
|----------------------------------------------------------|
|----------------------------------------------------------|

                                                  Add Distortion here
|------------------------------------------------------------------|
|--5-----7-----8-----7---6-----5-----7-----8------------9--7-------|
|----7-----7-----7-----7---7-----7-----7-----7----------7--5-------|
|------6-----6-----6---------------6-----6-----6-------------------|
|------------------------------------------------------------------|
|------------------------------------------------------------------|

Pre-chorus
|---------------------------------|
|--5-5--7-7--8-8--7-7-------------|
|--4-4--6-6--7-7--6-6-------------|
|---------------------------------|
|---------------------------------|
|-----------------------0-0-0-0---|
PM                      . . . .

|-----------------------------|
|--5-5--7-7--8-8--------------|
|--4-4--6-6--7-7----9--7------|
|-------------------7--5------|
|-----------------------------|
|-----------------------------|

|---------------------------------|
|--5-5--7-7--8-8--7-7-------------|
|--4-4--6-6--7-7--6-6-------------|
|---------------------------------|
|---------------------------------|
|-----------------------0-0-0-0---|
PM                      . . . .

|-----------------------|
|--5-5--7-7--8-8--7-7---|
|--4-4--6-6--7-7--6-6---|
|-----------------------|
|-----------------------|
|-----------------------|

CHORUS
|----------------------------------------------------------------|
|---------------------8--8-7-------------------------------------|
|---------7-------7---7--7-6-------------------------------------|
|---------5-------7----------------------------------------------|
|-----------------5-------------6br--5---5-6-5br--6br--5---5-6br-|
|--------------------------------------4-----------------4-------|
PH                              .   . . . .  .    .   . . . .

|----------------------------------------------------------------|
|---------------------8--8-7-------------------------------------|
|---------7-------7---7--7-6-------------------------------------|
|---------5-------7----------------------------------------------|
|-----------------5-------------6br--5---5-6-5br--6br--5---5-6br-|
|--------------------------------------4-----------------4-------|
PH                              .   . . . .  .    .   . . . .

|----------------------------------------------------------------|
|---------------------8--8-7-------------------------------------|
|---------7-------7---7--7-6-------------------------------------|
|---------5-------7----------------------------------------------|
|-----------------5-------------6br--5---5-6-5br--6br--5---5-6br-|
|--------------------------------------4-----------------4-------|
PH                              .   . . . .  .    .   . . . .

|----------------------------------------------------------------------|
|----------------------------------------------------------------------|
|---------7-------7------------9---------------------------------------|
|---------5-------7-hold-------9--move whammy bar up and down steadily-|
|-----------------5------------7---------------------------------------|
|----------------------------------------------------------------------|

sorry still working on the solo

Outro
|---------------------------------|
|---------------------------------|
|---------------------------------|
|-2--------2----------------------|
|-2-hold---2-hold-----------------|
|-0--------0----------7/--12/-----|

|---------------------------------|
|--5-5--7-7--8-8--7-7-------------|
|--4-4--6-6--7-7--6-6-------------|
|---------------------------------|
|---------------------------------|
|-----------------------0-0-0-0---|
PM                      . . . .

|-----------------------------|
|--5-5--7-7--8-8--------------|
|--4-4--6-6--7-7----9--7------|
|-------------------7--5------|
|-----------------------------|
|-----------------------------|

|----------------------------------------------------------------|
|---------------------8--8-7-------------------------------------|
|---------7-------7---7--7-6-------------------------------------|
|---------5-------7----------------------------------------------|
|-----------------5-------------6br--5---5-6-5br--6br--5---5-6br-|
|--------------------------------------4-----------------4-------|
PH                              .   . . . .  .    .   . . . .

|----------------------------------------------------------------|
|---------------------8--8-7-------------------------------------|
|---------7-------7---7--7-6-------------------------------------|
|---------5-------7----------------------------------------------|
|-----------------5-------------6br--5---5-6-5br--6br--5---5-6br-|
|--------------------------------------4-----------------4-------|
PH                              .   . . . .  .    .   . . . .

|----------------------------------------------------------------|
|---------------------8--8-7-------------------------------------|
|---------7-------7---7--7-6-------------------------------------|
|---------5-------7----------------------------------------------|
|-----------------5-------------6br--5---5-6-5br--6br--5---5-6br-|
|--------------------------------------4-----------------4-------|
PH                              .   . . . .  .    .   . . . .
|----------------------------------------------------------------------|
|----------------------------------------------------------------------|
|---------7-------7------------9---------------------------------------|
|---------5-------7-hold-------9--move whammy bar up and down steadily-|
|-----------------5------------7---------------------------------------|
|----------------------------------------------------------------------|
            
Hard to play? Try these video lessons and learn fast. | Correct




comments powered by Disqus
↑ Back to top | Tablatures and chords are parodies/interpretations of the original songs. You may use it for private study, scholarship, research or language learning purposes only