» » »

Pantera, 13 Steps To Nowhere Tabs (ver.1)

Artists:  A B C D E F G H I J K L M N O P Q R S T U V W X Y Z # 

13 Steps To Nowhere Tabs (ver.1)

Pantera Tabs
Rating:
3/5 (4 votes)
13 Steps To Nowhere lessons Tabs too difficult? Try these video lessons and learn fast
                Pantera
13 Steps To Nowhere 

. = Palm Mute 
x = Mute 
* = Whammy Bar stuff 
h = Hammer On 
p = Pull Off 
b = Bend 
r = Release (bend) 
 
**TUNE DOWN 1 1/2 STEPS** 
 
Intro After Drums 
|Play 3 times-------------| 
||----------------|------||--------------------------------------| 
||----------------|------||--------------------------------------| 
||----------------|------||--------------------------------------| 
||-2--------------|-2----||--------------------------------5---7-| 
||-2---8-----(8)\-|-2----||-2------------------5---7-5-6-7---7---| 
||-0---6-----(6)\-|-0----||-0-------/7---5-6-7---7---------------| 
                                         ....................... 
 
|-------------------------------------| 
|-------------------------------------| 
|----------------------------12----14-| 
|----------12----14-12-13-14----14----| 
|-12-13-14----14----------------------| 
|-------------------------------------| 
  ................................... 
 
*VERSE* 
||--------------------------------|-------------------------------------|| 
||--------------------------------|-------------------------------------|| 
||--------------------------------|-------------------------------------|| 
||-2----------------------0-------|--2----------------------------5---7-|| 
||-2---8--(8)\--------1h2---1p0---|--2---8\-----------5---7-5-6-7---7---|| 
||-0---6--(6)\------0-----------3-|--0---6\-----5-6-7---7---------------|| 
                                                ....................... 
 
*CHORUS* 
Thir-teen    Thir-teen... 
|------------------------------------------------|-----------------------------| 
|------------------------------------------------|-----------------------------| 
|------------------------------------------------|-----------------------------| 
|-8--8---x-x-8---8---x-x-8---8---x-x-8---8---x-x-|---8---8---x-x-8---8---x-x-8-| 
|-6--6---x-x-6---6---x-x-6---6---x-x-6---6---x-x-|---6---6---x-x-6---6---x-x-6-| 
|-6--6---x-x-6---6---x-x-6---6---x-x-6---6---x-x-|---6---6---x-x-6---6---x-x-6-| 
 
|----------------------| 
|----------------------| 
|----------------------| 
|----------------------| 
|-5h7-7-5h7-7-5h7-7-7\-| 
|----------------------| 
 
 
*BRIDGE* 
                       Your backlash dislocates... 
|---------------------|----------------------------------------| 
|---------------------|----------------------------------------| 
|---------------------|----------------------------------------| 
|---------------------|----------------------------------------| 
|------------5b---2~~-|----------------------------------------| 
|-4b---1~~------------|-1-4-5-6\--1-4-5-6\--1-4-5-6\--1-4-5-6\-| 
 
|----------------------------------------|---------------| 
|----------------------------------------|---------------| 
|----------------------------------------|---------------| 
|----------------------------------------|---------------| 
|----------------------------------------|---------5---2-| 
|-1-4-5-6\--1-4-5-6\--1-4-5-6\--1-4-5-6\-|-4---1---------| 
 
|----------------------------------------|------------------------------------------| 
|----------------------------------------|------------------------------------------| 
|----------------------------------------|------------------------------------------| 
|----------------------------------------|------------------------------------------| 
|----------------------------------------|------------------------------------------| 
|-1-4-5-6\--1-4-5-6\--1-4-5-6\--1-4-5-6\-|-1-4-5-6\--1-4-5-6\--1-4-5-6\----1-4-5-6\-| 
 
|---------------------|----------------------------------------| 
|---------------------|----------------------------------------| 
|---------------------|----------------------------------------| 
|-------------6----4--|----------------------------------------| 
|-------------4----2--|----------------------------------------| 
|-4b---1~~----4----2--|-1-4-5-6\--1-4-5-6\--1-4-5-6\--1-4-5-6\-| 
 
|----------------------------------------|-----------------| 
|----------------------------------------|-----------------| 
|----------------------------------------|-----------------| 
|----------------------------------------|-----------------| 
|----------------------------------------|---------5----2--| 
|-1-4-5-6\--1-4-5-6\--1-4-5-6\--1-4-5-6\-|-4---1-----------| 
 
|----------------------------------------|----------------------------------------| 
|----------------------------------------|----------------------------------------| 
|----------------------------------------|----------------------------------------| 
|----------------------------------------|----------------------------------------| 
|----------------------------------------|----------------------------------------| 
|-1-4-5-6\--1-4-5-6\--1-4-5-6\--1-4-5-6\-|-1-4-5-6\--1-4-5-6\--1-4-5-6\--1-4-5-6\-| 
 
Two Guitars 
|---------------|---------------|----------------------16~~-|--------------------------| 
|---------------|---------------|---------------------------|--------------------7b~~--| 
|-1-------4---1-|-4-------7---4-|---------------------------|--------------------------| 
|-----3---------|-----6---------|---------------------------|--------------------------| 
|---------5---2-|---------5---2-|-------------5----2--------|-----------5----2---------| 
|-4---1---------|-4---1---------|---4----1------------------|-4----1-------------------| 
 
|-------------------------| 
|--------------------12~~-| 
|-------------------------| 
|-------------------------| 
|-----------5----2--------| 
|-4----1------------------| 
 
|-------------------17b~~-| 
|-------------------------| 
|-------------------------| 
|-------------------------| 
|-----------5----2--------| 
|-4----1------------------| 
 
|-------------------17b~--| 
|-------------------------| 
|-------------------------| 
|-------------------------| 
|-----------5----2--------| 
|-4----1------------------| 
 
|-------------------------| 
|--------------------7b~~-| 
|-------------------------| 
|-------------------------| 
|-----------5----2--------| 
|-4----1------------------| 
 
|-------------------------| 
|--------------------12~~-| 
|-------------------------| 
|-------------------------| 
|-----------5----2--------| 
|-4----1------------------| 
 
|------------------17b--(17r)-| 
|-----------------------------| 
|-----------------------------| 
|-----------------------------| 
|-----------5----2------------| 
|-4----1----------------------| 
 
|--------------------------| 
|--------------------17b~~-| 
|--------------------------| 
|--------------------------| 
|-----------5----2---------| 
|-4----1-------------------| 
 
|-----------20b--|----------------------|------------------------------| 
|-----------23b--|----------------------|------------------------------| 
|----------------|----------------------|------------------------------| 
|----------------|----------------------|-2----------------------------| 
|----------------|-5h7-7-7-7-7-7-7-7-7\-|-2---8---5h7-7-7-7-7-7-7-7-7\-| 
|-4----1---------|----------------------|-0---6------------------------| 
 
|-----------------------------|------------------------------|------------------------------| 
|-----------------------------|------------------------------|------------------------------| 
|-----------------------------|------------------------------|------------------------------| 
|-2---------------------------|-2----------------------------|-2----------------------------| 
|-2---8---5h7-7-5h7-7-5h7-7-7-|-2---8---5h7-7-7-7-7-7-7-7-7\-|-2---8---5h7-7-5h7-7-5h7-7-7\-| 
|-0---6-----------------------|-0---6------------------------|-0---6------------------------| 
 
|------------------------------------------|-----------------------------| 
|------------------------------------------|-----------------------------| 
|------------------------------------------|-----------------------------| 
|-8--8---x-x-8---8---x-x-8---8---x-x-8---8-|---8---8-------8---8-------8-| 
|-6--6---x-x-6---6---x-x-6---6---x-x-6---6-|---6---6-------6---6-------6-| 
|-6--6---x-x-6---6---x-x-6---6---x-x-6---6-|---6---6-------6---6-------6-|
            
Submit corrections

comments powered by Disqus
↑ Back to top | Pantera Tabs for 13 Steps To Nowhere. Lyrics for acoustic guitar and electric guitar. Tablatures and chords are parodies/interpretations of the original songs. You may use it for private study, scholarship, research or language learning purposes only