» » »

Panic At The Disco, Pas De Cheval Tabs (ver.1)

Artists:  A B C D E F G H I J K L M N O P Q R S T U V W X Y Z # 

Pas De Cheval Tabs (ver.1)

Panic At The Disco Tabs
 Rating:
4/5 (4 votes)
Pas De Cheval lessons Tabs too difficult? Try these video lessons and learn fast
1
                Album:Pretty Odd

For any comments,questions or suggestions,just post a comment or PM me.Pilipino Rules!!

Gtr.Legends:
/ - slide
h - hammer-on
x - scratching
~ - let it ring
* - pinch harmonic

Gtr.Tuning:Whole-Step down(Alternative)

Intro:
d|-------------------2~---------|
A|-2~----------------2~---------|
D|-3~-2h4-6-2h4-6----3~---------|
C|-4~----------------4~-----4---|
G|-4~----------------4~-4h6-----|
D|-2~----------------2~---------|

Verse 1:Oh,little dide she know...
d|-3-x-3-x-33---4-x-4-x-66---2-x-2-x-22---2---2---22---------|
A|-3-x-3-x-33---4-x-4-x-66---2-x-2-x-22---2-x-2-x-22---------|
D|-2-x-2-x-22---6-x-6-x-66---4-x-4-x-44---3-x-3-x-33---------| 2x
C|-4-x-4-x-44---6-x-6-x-66---4-x-4-x-44---4-x-4-x-44-----4---|
G|-4-x-4-x-44---4-x-4-x-44---2-x-2-x-22---4-x-4-x-44-4h6-----|
D|-2---2---22-----------------------------2-x-2-x-22---------|
Listen carefully to it's strumming pattern

Pre-Chorus:So we'll just sing it...
d|-44---4---4---22---2---2---22---2---2-22----44---4---4---22---2---2--------|
A|-44---4---4---22---2---2---22---2---2-22----44---4---4---22---2---2--------|
D|-66---6---6---44---4---4---33---3---3-33----66-x-6-x-6---44-x-4-x-4---4~---|
C|-66-x-6-x-6---44-x-4-x-4---44---4---4-44----66-x-6-x-6---44-x-4-x-4---4~---|
G|-44-x-4-x-4---22-x-2-x-2---44-x-4-x-4-44----44-x-4-x-4---22-x-2-x-2---2~---|
D|---------------------------22-x-2-x-2-22-----------------------------------|

Chorus:It's the greatest thing...
d|--------------------------------------------------------------------|
A|--------------------------------------------------------------------|
D|------22-44444444-22-------------22-444444--66--44--------66--------|
C|-4444-22-44444444-22-4444---4444-22-444444--66--44--4444--66---4~---|
G|-4444-00-22222222-00-4444---4444-00-222222--44--22--4444--44---4~---|
D|-2222----------------2222---2222--------------------2222-------2~---|
                                              ..  ..        ..

Verse 2:Slow,leave walking...
Play Verse 1

Repeat Pre-Chorus:

Repeat Chorus:

Bridge(Gtr.Solo)
Gtr.1
d|-----------------------------------------------------|
A|-----------------------------------------------------|
D|------6666-4444-------------6666-44444444444444444---|
C|-4444-6666-4444-4444---4444-6666-44444444444444444---|
G|-4444-4444-2222-4444---4444-4444-22222222222222222---|
D|-2222-----------2222---2222--------------------------|

Gtr.2
d|-----------11-9~---1111-13/14-13-11-9-7--5h7-5-4-2-------------------------------|
A|-77-7h9-11--------------------------------------------5h7-5-4-------------7-9----|
D|--------------------------------------------------------------5-7-5--------------|
C|--------------------------------------------------------------------5------------|
G|----------------------------------------------------------------------4----------|
D|---------------------------------------------------------------------------------|

-11-9~--1111-13/14-13-11-9-7---5h7-5-4-2------|
11--------------------------------------------|
----------------------------------------------|
----------------------------------------------|
----------------------------------------------|
----------------------------------------------|

Repeat Chorus:

----------------------------|
-7*--5*--4-2----------------|
-------------4-2------------|
-----------------4-2--------|
---------------------4-2----|
----------------------------|

Repeat Chorus:

Outro:
d|----------------------------------------------------------------------|
A|----------------------------------------------------------------------|
D|-66--44---------66--44----------6666-4444-----------------------------|
C|-66--44--4444---66--44--44444---6666-4444---4~--4~--4~--4~--4~---4~---|
G|-44--22--4444---44--22--44444---4444-2222---4~--4~--4~--4~--4~---4~---|
D|---------2222-----------22222---------------2~--2~--2~--2~--2~---2~---|

End...


Pas de Cheval Lyrics:

Verse 1:
Oh, little did she know
Couldn't let me go
Already a part of her
So, often do I need
People in between
That just can't get a hold of it

Pre-Chorus:
So we'll just sing it for them
Ahhh
Yeah, we'll just sing it for them
(Just can't get a hold of it)
So we'll just sing it for them
Ahhh
Yeah, we'll just sing it

Chorus:
It's the greatest thing that's yet to have happened
Imagine knowing me
It's the greatest thing you'd ever imagine
But you'll never know until you're there
No, you'll never know until you're there

Verse 2:
Slow, leave walking to the world
Give your feet a chance
They'll do all the thinking
Toast, high until they find
Less pathetic wine
Until they get a better blend

Pre-Chorus 2:
And we'll just drink it for them
Ahhh
Yeah we'll just drink it for them
(Until they get a better plan)
So we'll just drink it for them
Yeah we'll just drink it

It's the greatest thing that's yet to have happened
Imagine knowing me
It's the greatest thing you'd ever imagine
But you'll never know until you're there
No, you'll never know until you're there

It's the greatest thing that's yet to have happened
Imagine knowing me
It's the greatest thing you'd ever imagine
But you'll never know until you're there
No, you'll never know until you're there
No, you'll never know until you're there
            
Submit corrections

comments powered by Disqus
↑ Back to top | Panic At The Disco Tabs for Pas De Cheval. Lyrics for acoustic guitar and electric guitar. 1 Tablatures and chords are parodies/interpretations of the original songs. You may use it for private study, scholarship, research or language learning purposes only