» » »

Pas De Cheval Tabs (ver.2)

Artists:  A B C D E F G H I J K L M N O P Q R S T U V W X Y Z # 

Pas De Cheval Tabs (ver.2)

Panic At The Disco
Rating:
0/5 (0 votes)

Hard to play? Try these video lessons and learn fast.
                Intro:
--------------------------------------------------------|
--------------------------------------------------------|
-----------4-------4-------------4----------------------|
------5-h6----5-h6------------5h6-----------------------|
-----------------------7~-------------------------------|
--------------------------------------------------------|

Verse chords: (oh, little did she know)

You can play the first E chord open or at the 7th fret, i find using the bar chord a lot 
to transition.

  E       EII    B    A
--------------------------------------------------------|
--9-----------------------------------------------------|
--9--(or)-1-----8-----6---------------------------------|
--9-------2-----9-----7---------------------------------|
--7-------2-----9-----7---------------------------------|
----------0-----7-----5---------------------------------|

so it goes:
E                  B                    A
Oh, little did she know, couldnt let me go
          EII         (fill)
already a part of her.

the Verse fill goes like this, pretty quick.
-----------------------------------------|
-----------------------------------------|
-----------------------------------------|
---------------4~------------------------|
------------5h6--------------------------|
-----------------------------------------|

Just repeat that including the fill for the entire verse.

heres the Pre Chorus: (so we'll just sing it for them)

----------------------------------------------|
--000------------------------0-0---000--0-0---|
--111--8-8---888--6-6---666--1-1---111--1-1---|
--222--9-9---999--7-7---777--2-2---222--2-2---| x2
--222--9-9---999--7-7---777--2-2---222--2-2---|
--000--7-7---777--5-5---555--0-0---000--0-0---|
 after the second time just play the last chord in countinuous eighth notes,
then it leads into the chorus

Chourus: (its the greatest thing)
it might be a little off, so post corrections

when you repeat, play to the dollar sign then go to the tab below it.

                     $
------------------------------------------------------|
---99999999-------------------------------------------|
---99999999-8~-888888-6-6-66x--1~111111---------------|x2
---99999999-9~-999999-7-7-77x--2~222222---------------|
---77777777-9~-999999-7-7-77x--2~222222---------------|
------------7~ 777777-5-5-55x--0~000000---------------|

--------------------------------------|
------------0000000-------------------|
---88---66--1111111-------------------|
---99---77--2222222-------------------|x2
---99---77--2222222-------------------|
---77---55--0000000-------------------|

then play the verse
then th chorus.
then after the chorus, the rythym guitar will continue playing the verse chords but in a 
style, while the other guitar plays the solo.

SOLO:
-------------9------9h11h12-11-9--------------------|
-----------9----12~--------------12-9--9^10-9-------|
---9-9-9-11------------------------------------11-9-|x2
----------------------------------------------------|
----------------------------------------------------|
----------------------------------------------------|

chorus to the end.
thank you and please comment!
            
Hard to play? Try these video lessons and learn fast. | Correct




comments powered by Disqus
↑ Back to top | Tablatures and chords are parodies/interpretations of the original songs. You may use it for private study, scholarship, research or language learning purposes only