» » »

Panic At The Disco, I Constantly Thank God For Esteban Bass tabs (ver.1)

Artists:  A B C D E F G H I J K L M N O P Q R S T U V W X Y Z # 

I Constantly Thank God For Esteban Bass tabs (ver.1)

Panic At The Disco Tabs
 Rating:
4/5 (4 votes)
I Constantly Thank God For Esteban lessons Tabs too difficult? Try these video lessons and learn fast
1
                Intro
G|---------------23--------------------------------23-----------------|   
D|-55-5-5-5-00-0----33-3-3-3-11-1-3--55-5-5-5-00-0----33-3-3-3-111-000|   
A|--------------------------------------------------------------------|   
D|--------------------------------------------------------------------| x2

Verse: "Give us this day..."
G|--------------------------------------------------------|   
D|-5-53-31-1-0-0-0-5--1-10-0-5-53-31-1-0-00-5-0-0-0000-0~-|   
A|--------------------------------------------------------|   
D|--------------------------------------------------------| 

Chorus:
G|----------------------------------------------------------------|   
D|-55-555-555-555-333-333-333-333-111-111-111-111-000-000-000-000-|   
A|----------------------------------------------------------------|   
D|----------------------------------------------------------------| x2

"Just stay where I can see you..."
G|-----------------------------|   
D|-5~--------------------------|   
A|--------------1/5-55-33-11-00|   
D|----5--3-5~------------------| 

Verse: 
G|-----------------------------------------------------------------------|   
D|-5-53-31-1-0-0-0-5--1-10-0-55-55-5-33-33-3-11-11-1-00-00-0-0-0-0-00-0~-|   
A|-----------------------------------------------------------------------|   
D|-----------------------------------------------------------------------|

Chorus x2

Bridge
G|--------------------------------------------------------------------------------   
D|-----------------5-53-------------55-5333-311-1-1111----------------55555533333-   
A|-3-33-333-3-3-3--------------------------------------3-33-333-3-3-3-------------   
D|----------------------0~-0~-0~-0~-----------------------------------------------

---------------------------------------------------------|
-------------55-5333-311-1-1111-00000000000000-5---5-5-5-|
---------------------------------------------------------|
-0~-0~-0~-0~---------------------------------------------|

Chorus:
G|---------------------------------------------------------------|
D|---------------------------------------------------------------|
A|---------------------------------------------------------------|
D|-55-555-555-555-333-333-333-333-111-111-111-111-000-000-000-000| x3

end last part with
G|-----------|
D|-----------|
A|-----------|
D|-0-0-00-0~-|
            
Submit corrections

comments powered by Disqus
↑ Back to top | Panic At The Disco Bass for I Constantly Thank God For Esteban. Lyrics for acoustic guitar and electric guitar. 1 Tablatures and chords are parodies/interpretations of the original songs. You may use it for private study, scholarship, research or language learning purposes only