» » »

Adheridos Separados Bass tabs (ver.2)

Artists:  A B C D E F G H I J K L M N O P Q R S T U V W X Y Z # 

Adheridos Separados Bass tabs (ver.2)

Panda
Rating:
0/5 (0 votes)

Hard to play? Try these video lessons and learn fast.
                Hola me llamo Jorge Ontiveros Jr y naci en Monterrey Mexico y ahora vivio en 
este es mi premer tab espero que les guste!
Afinacion: BEMOL or Half step down
H Hameron
/slide
*varias veces

Intro:
G-------------------------------|
D-------------------------------|  2 veces
A----------------18----------16-|
E---12*/-16-16-16-----14-14-14--|


G---------------------------|
D---------------------------|
A---------11*---------------|
E----9*--------0*-----2*----|


G--------------------------------|
D------11h13----13---------------|  2veces
A--11--------11----11----9*--7*--|
E--------------------------------|


G-----------------------------------|
D---------------------11-----11-----|
A-----------2*/7--9-9----9-9--------|
E---2*---0*-------------------------|


G--------------------------------|
D------11h13----13---------------|  2veces
A--11--------11----11----9*--7*--|
E--------------------------------|


G-------------------------------------------|
D------------------9----9-9------11------11-|
A-----------2*/7-7---7-7-----9-9-----9-9----|
E---2*---0*---------------------------------|


G------------------------------------------------|
D------------------------------------------------|
A------------------------------------2*----------|
E---4*--2*--0*----4*--2*--0*--2*--0*----0*--2*---|


G--------------------------------------------------|
D--------------------------------------------------|
A--11*--9*--7*--11*--9*--7*--9*--7*-----7*/9*------|
E------------------------------------7*------------|

G----------------------------------------------------|
D-------------------------------------11------11-----|
A------------------------4*--7*---9-9-----9-9--------|
E--0*--4*--2*--0*-4*--2*-----------------------------|

G-------------------------------|
D-------------------------------|  2 veces
A----------------18----------16-|
E---12*/-16-16-16-----14-14-14--|

G----------------------------|
D----------------------------|
A---------11*----------------|
E----9*--------0*-----2*--0--|

G---------------------------------------|
D--------------11h13--------------------|
A--------7--11--------9--7------2/7--9--|
E--4--2--------------------2--0---------|

G----------------------------------|
D----------------------------------|
A-----9*--6*--7*----9*--6*--7*-----|
E--7*------------7*----------------|

G----------------------------------------------------|
D-------------------------------------11------11-----|   3 Veces
A------------------------4*--7*---9-9-----9-9--------|
E--0*--4*--2*--0*-4*--2*-----------------------------|

G---------------------------------------------------|
D-------------------------------------11------11----|
A------------------------4*--7*---9-9-----9-9-------|
E--0*--4*--2*--0*-4*--2*--------------------------7-|
            
Hard to play? Try these video lessons and learn fast. | Correct




comments powered by Disqus
↑ Back to top | Tablatures and chords are parodies/interpretations of the original songs. You may use it for private study, scholarship, research or language learning purposes only