>
 >
Adheridos Separados

Adheridos Separados Guitar Tabs

Panda - Adheridos Separados chords, tabs, tablatures, lyrics

Guitar lessons | Add/correct | Request | Top 50 tabs Artists:  A B C D E F G H I J K L M N O P Q R S T U V W X Y Z 0-9

Adheridos Separados Guitar Tabs – Panda

CD, Sheet music, Poster

Do you like Adheridos Separados? Share with your friends now
Bass TabsBass Tabs v2ChordsTabsTabs v2Ukulele
OJO GUITARRA DE R2D2 AFINACION: BEMOL, GUITARRA PEPE CAPO EN EL 4TO TRASTE Y 
AFINACIÓN BEMOL, TAMBIEN LA GTR. EXTRA LLEVA CAPO EN EL 4TO TRASTE Y AFINACION BEMOL
INTRO
R2D2
D#||----------|---------------------------------|
A#||----------|---------------------------------|
F#||-----1s-4-|--4--4--4-4-4s-8-8b--8-6~--6-6-4-|
C#||----------|---------------------------------|
G#||----------|---------------------------------|
D#||----------|---------------------------------|


--------------------------------------|--------------------------------------|
--------------------------------------|-------------12-----------12----------|
--4--4--4-4-4s-8-8b--8----------------|------11------------11-----------11---|
-----------------------11~--11-11-11S-|--14------14-----14----14----14-------|
--------------------------------------|--------------------------------------|
--------------------------------------|--------------------------------------|

-----------------------------------------|-------------------|
---------12-----14--14-16b--16-----------|-------------------|
-------------------------------16---16\--|-------------------|
--13s-14-----14--------------------------|-------------------|
-----------------------------------------|-------------------|
-----------------------------------------|-------------------|
Pepe

D#||-------|--0--0--0-0-0--0-0-0-2--2-2-2-|--0--0--0-0-0--0-0-0-2--2-2-2-|
A#||-------|--1--1--1-1-1--0-0-0-3--3-3-3-|--1--1--1-1-1--0-0-0-3--3-3-3-|
F#||-------|--0--0--0-0-0--0-0-0-2--2-2-2-|--0--0--0-0-0--0-0-0-2--2-2-2-|
C#||-------|--2--2--2-2-2--2-2-2-0--0-0-0-|--2--2--2-2-2--2-2-2-0--0-0-0-|
G#||-------|--3--3--3-3-3--2-2-2-0--0-0-0-|--3--3--3-3-3--2-2-2-0--0-0-0-|
D#||-------|---------------0-0-0----------|---------------0-0-0----------|

--0--0--0-0-0--0-0-0-0--0-0--|--0--0--0-0-0-2--2-2-2--2-2--|----------------|
--1--1--1-1-1--1-1-1-1--1-1--|--1--1--1-1-1-3--3-3-3--3-3--|----------------|
--2--2--2-2-2--2-2-2-2--2-2--|--0--0--0-0-0-2--2-2-2--2-2--|----------------|
--2--2--2-2-2--2-2-2-2--2-2--|--2--2--2-2-2-0--0-0-0--0-0--|----------------|
--0--0--0-0-0--0-0-0-0--0-0--|--3--3--3-3-3-0--0-0-0--0-0--|----------------|
--0--0--0-0-0--0-0-0-0--0-0--|-----------------------------|----------------|
GTR: EXTRA:

D#||-------|----------------------------------------------------|
A#||-------|--8-8-8--x--x-10-10-10--x--x-8-8--x-12--12-12--x--x-|
F#||-------|--x-x-x--x--x--x--x--x--x--x-x-x--x--x---x--x--x--x-|
C#||-------|--5-5-5--x--x--7--7--7--x--x-5-5--x--9---9--9--x--x-|
G#||-------|----------------------------------------------------|
D#||-------|----------------------------------------------------|

----------------------------------------------------|
--8-8-8--x--x-10-10-10--x--x-8-8--x-12--12-12--x--x-|
--x-x-x--x--x--x--x--x--x--x-x-x--x--x---x--x--x--x-|
--5-5-5--x--x--7--7--7--x--x-5-5--x--9---9--9--x--x-|
----------------------------------------------------|
----------------------------------------------------|

-------------------------------------------------------|
--10-10-10--10-10-10-12--(x)-10--(x)-12--(x)-10--(x)-8-|
---x--x--x---x--x--x--x-------x-------x-------x------x-|
---7--7--7---7--7--7--9--(x)--7--(x)--9--(x)--7--(x)-5-|
-------------------------------------------------------|
-------------------------------------------------------|
           
--------------------------------------|-------------------|-------------------|
--8-8-8--8-8-8-10--10-10-10-10-10-10--|-------------------|-------------------|
--x-x-x--x-x-x--x---x--x--x--x--x--x--|-------------------|-------------------|
--5-5-5--5-5-5--7---7--7--7--7--7--7--|-------------------|-------------------|
--------------------------------------|-------------------|-------------------|
--------------------------------------|-------------------|-------------------|


EL VERSO ES PURO BAJO Y R2D2 APLAUDE EN LA PARTE DONDE DICE: PENSE QUE HABIA MADURADO.........
PEPE TOCA ESTO 
-------------------|--------------------0--|--(0)------0--2--x-3-3--x-0-|
-------------------|--------------------0--|---0-------0--3--x-3-3--x-0-|
-------------------|--------------------0--|---0-------0--2--x-0-0--x-0-|
-------------------|-------------------(2)-|---2-------2--0--x-2-2--x-2-|
-------------------|-----------------------|---2---------------3-3--x---|
-------------------|-----------------------|---0------------------------|

--(0)------0--2--x-3-3--3-3-|--2------3-3-3---3--3--3----3--0-|
---0-------0--3--x-3-3--3-3-|--3------3-0-3---3--3--3----3--1-|
---0-------0--2--x-0-0--0-0-|--2------0-0-0---0--0--0----0--0-|
---2-------2--0--x-2-2--2-2-|--0------2-2-2--(0)-0-(0)--(0)-2-|
---2---------------3-3--3-3-|---------3-3-3---2--2--2----2--3-|
---0------------------------|-----------------3--3--3----3----|

--0---------------2--L------0-|--(0)------0--2--x-3-3--x-0-|
--1------L------3----L------0-|---0-------0--3--x-3-3--x-0-|
--0------L----2------L------0-|---0-------0--2--x-0-0--x-0-|
--2------L--0--------L------2-|---2-------2--0--x-2-2--x-2-|
--3------L--------------------|---2---------------3-3--x---|
------------------------------|---0------------------------|


--(0)------0--2--x-3-3--3-3-|--2-------3--3--3----3--3--3----3--0-|
---0-------0--3--x-3-3--3-3-|--3-------3--3--3----3--3--3----3--1-|
---0-------0--2--x-0-0--0-0-|--2-------0--0--0----0--0--0----0--0-|
---2-------2--0--x-2-2--2-2-|--0------(2)-2-(2)--(0)-0-(0)--(0)-2-|
---2---------------3-3--3-3-|----------3--3--3----2--2--2----2--3-|
---0------------------------|---------------------3--3--3----3----|


--0-------0--0-0-2--2-2-2-2-2-2-|
--1----L--1--1-1-3--3-3-3-3-3-2-
--0----L--0--0-0-2--2-2-2-2-2-2-|
--2----L-(2)-2-2-0--0-0-0-0-0-0-|
--3----L-(3)-3-3----------------
--------------------------------
CORO
PEPE

--0--0--0-0-0--0-0-0-2--2-2-2-|--0--0--0-0-0--0-0-0-2--2-2-2-|
--1--1--1-1-1--0-0-0-3--3-3-3-|--1--1--1-1-1--0-0-0-3--3-3-3-|
--0--0--0-0-0--0-0-0-2--2-2-2-|--0--0--0-0-0--0-0-0-2--2-2-2-|
--2--2--2-2-2--2-2-2-0--0-0-0-|--2--2--2-2-2--2-2-2-0--0-0-0-|
--3--3--3-3-3--2-2-2-0--0-0-0-|--3--3--3-3-3--2-2-2-0--0-0-0-|
---------------0-0-0----------|---------------0-0-0----------|

--0--0--0-0-0--0-0-0-0--0-0--|--0--0--0-0-0-2--2-2-2--2-2--|
--1--1--1-1-1--1-1-1-1--1-1--|--1--1--1-1-1-3--3-3-3--3-3--|
--2--2--2-2-2--2-2-2-2--2-2--|--0--0--0-0-0-2--2-2-2--2-2--|
--2--2--2-2-2--2-2-2-2--2-2--|--2--2--2-2-2-0--0-0-0--0-0--| X2
--0--0--0-0-0--0-0-0-0--0-0--|--3--3--3-3-3-0--0-0-0--0-0--|
--0--0--0-0-0--0-0-0-0--0-0--|-----------------------------|
R2D2:
-------------------------------|-------------------------------|
-------------------------------|-------------------------------|
-------------------------------|-------------------------------|
--2--2--2-2-2S--6-6-6-4--4-4-4-|--2--2--2-2-2S--6-6-6-4--4-4-4-|
--2--2--2-2-2S--6-6-6-4--4-4-4-|--2--2--2-2-2S--6-6-6-4--4-4-4-|
--0--0--0-0-0S--4-4-4-2--2-2-2-|--0--0--0-0-0S--4-4-4-2--2-2-2-|
 
-----------------------------|-----------------------------------|
-----------------------------|-----------------------------------|
--6--6--6-6-6--6-6-6-6--6-6--|--9--9--9-9-9-11--11-11-11--11-11--| X2
--6--6--6-6-6--6-6-6-6--6-6--|--9--9--9-9-9-11--11-11-11--11-11--|
--4--4--4-4-4--4-4-4-4--4-4--|--7--7--7-7-7--9---9--9--9---9--9--|
-----------------------------|-----------------------------------|
INTRO DE NUEVO (IGUAL
LA PARTE DONDE DICE REALMENTE NO ESTOY.....
PEPE

 
|--0--0---0-0-2--2-2-3--3-3-3-|
|--0--0---0-0-3--3-3-3--3-3-3-|
|--0--0---0-0-2--2-2-0--0-0-0-|
|--2--2---2-2-0--0-0-2--2-2-2-|
|--2--2---2-2-0--0-0-3--3-3-3-|
|--0--0---0-0-----------------|

--0--0---0-0-2--2-2-3--3-3-3-|--2--2---2-2-3--3-3-3--3-3-3-|
--0--0---0-0-3--3-3-3--3-3-3-|--3--3---3-3-3--3-3-3--3-3-3-|
--0--0---0-0-2--2-2-0--0-0-0-|--2--2---2-2-0--0-0-0--0-0-0-|
--2--2---2-2-0--0-0-2--2-2-2-|--0--0---0-0-2--2-2-0--0-0-0-|
--2--2---2-2-0--0-0-3--3-3-3-|--0--0---0-0-3--3-3-2--2-2-2-|
--0--0---0-0-----------------|--------------------3--3-3-3-|

--0--0---0-0-2--2-2--2-2-2-
--1--1---1-1-3--3-3--3-3-3-
--0--0---0-0-2--2-2--2-2-2-     X2
--2--2---2-2-0--0-0--0-0-0-
--3--3---3-3-0--0-0--0-0-0-
---------------------------


AQUI ES LA PARTE DONDE PEPE DICE: ENTRE TU Y YO......



---3--3--3--3--2--2--2--2--|--2--2--2--2--0--0--0--0-------------------|
----3--3--3--3--3--3--3--3-|---3--3--3--3--1--1--1--1-|ESTO X 2--------|
----------------------------------|------------------------------------|
----------------------------------|------------------------------------|
----------------------------------|------------------------------------|
----------------------------------|------------------------------------|
Y LUEGO LO TOCA ASI
--3-3-3-3-3-3-3-3-2-2-2-2-2-2-2-2-|--2-2-2-2-2-2-2-2-0-0-0-0-0-0-0-0-|
--3-3-3-3-3-3-3-3-3-3-3-3-3-3-3-3-|--3-3-3-3-3-3-3-3-1-1-1-1-1-1-1-1-|
----------------------------------|----------------------------------|X2
----------------------------------|----------------------------------|
----------------------------------|----------------------------------|
----------------------------------|----------------------------------|
EN TODAS ESA PARTE R2D2 TOCA ESTO

---------7-------7g9--7-----|---------7--------7g9--7----|
-------7---------7----7-----|---------7----------7--7----|
--8s-9----------------------|--8s-9----------------------|
----------------------------|----------------------------|
----------------------------|----------------------------|
----------------------------|----------------------------|


--11------11b--11----------|--11------11b--11----------|---------------------|
---------------------12----|---------------------------|---------------------|
---------------------------|---------------------11----|--L~------------9----|
---------------------------|---------------------------|---------------------|
---------------------------|---------------------------|---------------------|
---------------------------|---------------------------|---------------------|


-------------------------|-------------------------|
-------------------------|-------------------------|
--8------9s--11----L~----|-------------------------|
-------------------------|--9---------9------9s-11-|
-------------------------|---------9---------------|
-------------------------|-------------------------|

---------------------------------|
---------------------------------|
---------------------------------|
--9--L~----11--11s-13--~---------|
---------------------------------|
---------------------------------|

----------------------------------------------------|
--12-------12-------14----12-------12-------14------|
-----11-11----11-11----11----11-11----11-11---11----|
----------------------------------------------------|
----------------------------------------------------|
----------------------------------------------------|

--11-------11-------------------------------------|
--------------------14----12-------12-------11----|
-----11-11----11-11----11----11-11----11-11----11-|
--------------------------------------------------|
--------------------------------------------------|
--------------------------------------------------|

--------------------------------------------------|
--12-------12-------14----12-------12-------14----|
-----11-11----11-11----11----11-11----11-11----11-|
--------------------------------------------------|
--------------------------------------------------|
--------------------------------------------------|

--11-------11-------12----14-------14-------14\--|
-------------------------------------------------|
-----11-11----11-11----11----11-11----11-11------|
-------------------------------------------------|
-------------------------------------------------|
-------------------------------------------------|
                OJO:
LUEGO VA EL CORO PEPE TOCA LO MISMO
R2D2 TOCA EL INTRO UNA VEZ PERO LA SIG CON UNA VARIACIÓN ASI:


|--------------------------------|
|--------------------------------|
|--4--4--4-4-4s-8-8~--8-6--6-6-4-|
|--------------------------------|
|--------------------------------|
|--------------------------------|

--------------------------------------|--------------------------------------|
--------------------------------------|-------------12-----------12----------|
--4--4--4-4-4s-8-8b--8----------------|------11-----------11-----------11----|
-----------------------11~--11-11-11S-|--14-----14----14----14----14---------|
--------------------------------------|--------------------------------------|
--------------------------------------|--------------------------------------|


-----------------------12---11---------|
---------12----14--14-----------12-----|
---------------------------------------|
--13s-14----14-------------------------|
---------------------------------------|
---------------------------------------|
                OJO:
VA LA PARTE DONDE DICE:NO NO TE RINDAS JAMAS....
PEPE AHI TOCA EL CORO X2 Y ACABA EN G
R2D2 TOCA ESTO EN TODA ESA PARTE

-------------------------------------------|
--12--12--12-12-12-16-16~--16-14--14-14-12-|
-------------------------------------------|
-------------------------------------------|
-------------------------------------------|
-------------------------------------------|

-------------------------------------------|
--12--12--12-12-12-16-16b--16-14~--14-14~--|
-------------------------------------------|
-------------------------------------------|
-------------------------------------------|
-------------------------------------------|

----------14----------14-----16-----|
--12--12------12--12------12-----12-|
------------------------------------|
------------------------------------|
------------------------------------|
------------------------------------|

--14--14--14s-12-11--------------------------|
--------------------14~---14~--14s-12-12s-11-|
---------------------------------------------|
---------------------------------------------|
---------------------------------------------|
---------------------------------------------|

----------------------------------------|
--12--12--12----12----14---14s--16-16S--|
-------------11----11-------------------|
----------------------------------------|
----------------------------------------|
----------------------------------------|

-----------------------------------------|-----------------------------------|
--12--12--12----12----14---14s-16-16-16--|--16b--16-14~--14-14s-12-12~-------|
-------------11----11--------------------|-----------------------------------|
-----------------------------------------|-----------------------------------|
-----------------------------------------|-----------------------------------|
-----------------------------------------|-----------------------------------|

---------------------------------------------|--7----------------|
--16b--16-14~--14-14-12-12~--11-12~--11-12S--|--7----------------|
---------------------------------------------|-------------------|
---------------------------------------------|-------------------|
---------------------------------------------|-------------------|
---------------------------------------------|-------------------|





Comments


Popular Panda tabs & chords
Los Malaventurados No Lloran 2 Bass Tabs
Nuestra Afliccin Chords
Figura Decorativa Sobre Fondo Ornamental 1 Tabs
Los Malaventurados No Lloran Tabs
Los Malaventurados No Lloran 5 Tabs
Mueca Tabs
Oro Tabs
Pathetica 3 Tabs
Pathetica 4 Tabs
Promesasdecepciones Tabs


Song lyrics



↑ Back to top | Tablatures and chords are parodies/interpretations of the original songs. You may use it for private study, scholarship, research or language learning purposes only
© 2014 AZChords.com Contact us | Privacy policy | DMCA | Add/correct tabs | Request tabs | Top 50 tabs