» » »

Panda, Adheridos Separados Bass tabs (ver.1)

Artists:  A B C D E F G H I J K L M N O P Q R S T U V W X Y Z # 

Adheridos Separados Bass tabs (ver.1)

Panda Tabs
Rating:
5/5 (3 votes)
Adheridos Separados lessons Tabs too difficult? Try these video lessons and learn fast
                Afinación: Bemol
intro:
 
F#||-------|-------------------------------------|
C#||-------|---------------------13-11----11-9---|
G#||-------|--7--7--7-7-7S-11-11-------9-------9-|
D#||-------|-------------------------------------|

-------------------------------------|------------------------------------|
---------------------13-11----11-9---|------------------------------------|
--7--7--7-7-7S-11-11-------9-------9-|--4--4--4-4-4S--11-11-11-11--11-11--|
-------------------------------------|------------------------------------|

------------------------------|
------------------------------|
----------------------4----4S-|
--0--0--0-0-0-2--2-2-2--2-----|

verso:
|-----------------------------------------|
|------11s-13----13----13-----------------|
|--11---------11----11----9-9-9-7-7-7-7-9-|
|-----------------------------------------|

-----------------------------------------|
------11s-13----13----13-----------------|
--11---------11----11----9-9-9-7-7-7-7-6-|
-----------------------------------------|

 
----------------------------------|----------------------------------|
----------------------------------|--------------------11-------11---|
-----------------------2-2-2-2-4S-|--7--7--7-7-7-7-9-9------9-9------|
--2--2-2-2-2-2-0-0-0-0------------|----------------------------------|


|-----------------------------------------|
|------11s-13----13----13-----------------|
|--11---------11----11----9-9-9-7-7-7-7-9-|
|-----------------------------------------|

-----------------------------------------|
------11s-13----13----13-----------------|
--11---------11----11----9-9-9-7-7-7-7-6-|
-----------------------------------------|

 
----------------------------------|----------------------------------|
----------------------------------|--------------------11-------11---|
-----------------------2-2-2-2-4S-|--7--7--7-7-7-7-9-9------9-9------|
--2--2-2-2-2-2-0-0-0-0------------|----------------------------------|

verso 2:

----------------------------------|----------------------------------|
----------------------------------|----------------------------------|
----------------------------------|----------------------------------|
--4-4-4-4-4-4-4-2-2-2-2-0-0-0-0-2-|--4-4-4-4-4-4-4-2-2-2-2-0-0-0-0-0-|

   
----------------------------------|---------------------------------|
----------------------------------|---------------------------------|
------------------------2-2-2-2-2-|---------------------------------|
--2-2-2-2-2-2-2-0-0-0-0-----------|--0-0-0-0-0-0-0-2-2-2-2-2-2-2-2--|


-----------------------------------------|
-----------------------------------------|
--11-11-11-11-11-11-11-9-9-9-9-7-7-7-7-9-|
-----------------------------------------|

-----------------------------------------|
-----------------------------------------|
--11-11-11-11-11-11-11-9-9-9-9-7-7-7-7-7-|
-----------------------------------------|


----------------------------------|----------------------------------|
----------------------------------|----------------------------------|
--9-9-9-9-9-9-9-7-7-7-7-----------|--7-7-7-7-7-7-7-7-9-9-9-9-9-9-9-9-|
------------------------7-7-7-7-7-|----------------------------------|

coro:

------------------------------|------------------------------|
------------------------------|------------------------------|
------------------------------|------------------------------|
--0--0--0-0-0--4-4-4-2--2-2-2-|--0--0--0-0-0--4-4-4-2--2-2-2-|

  
------------------------------|----------------------------------|
------------------------------|--------------------11-------11---|
--4--4--4-4-4--4-4-4-4--4-6-6-|--7--7--7-7-7-9-9-9-(9)--9-9-(9)--|
------------------------------|----------------------------------|


------------------------------|------------------------------|
------------------------------|------------------------------|
------------------------------|------------------------------|
--0--0--0-0-0--4-4-4-2--2-2-2-|--0--0--0-0-0--4-4-4-2--2-2-2-|


 
------------------------------|----------------------------------|
------------------------------|--------------------11-------11---|
--4--4--4-4-4--4-4-4-4--4-6-6-|--7--7--7-7-7-9-9-9------9-9------|
------------------------------|----------------------------------|

Re-intro:
 
-------------------------------------|
---------------------13-11----11-9---|
--7--7--7-7-7S-11-11-------9-------9-|
-------------------------------------|
  
-------------------------------------|------------------------------------|
---------------------13-11----11-9---|------------------------------------|
--7--7--7-7-7S-11-11-------9-------9-|--4--4--4-4-4S--11-11-11-11--11-11--|
-------------------------------------|------------------------------------|

            
------------------------------|--------------------|-------------------|
------------------------------|--------------------|-------------------|
------------------------------|--------------------|-------------------|
--0--0--0-0-0--2-2-2-2--2-2S--|--16----------------|-------------------|

verso 3:

-------------------|-------------------|-------------------------|
-------------------|-------------------|-------------------------|
-------------------|-------------------|-------------------------|
-------------------|-------------------|--16--------2S----12S----|

------------------------------|----------------------|
------------------------------|----------------------|
----------16-18---------------|----------------------|
--16------------14S----12S----|--2--------0----7S----|


-------------------------|
-------------------------|
-------------------------|
--12s------14--14--------|

Puente:

|----------------------------------|
|----------------------------------|
|------------------9-9-9-9-9-9-9-9-|
|--7-7-7-7-7-7-7-7-----------------|
                                             X4
----------------------------------| 
----------------------------------|
--6-6-6-6-6-6-6-6-7-7-7-7-7-7-7-7-|              
----------------------------------|

luego se toca el coro hasta acabar y termina en:
               
|-------------------|
|-------------------|
|--2----------------|
|-------------------|
            
Submit corrections

comments powered by Disqus
↑ Back to top | Panda Bass for Adheridos Separados. Lyrics for acoustic guitar and electric guitar. Tablatures and chords are parodies/interpretations of the original songs. You may use it for private study, scholarship, research or language learning purposes only