» » »

Tatooed Dancer Tabs (ver.1)

Artists:  A B C D E F G H I J K L M N O P Q R S T U V W X Y Z # 

Tatooed Dancer Tabs (ver.1)

Ozzy Osbourne
Rating:
0/5 (0 votes)

Hard to play? Try these video lessons and learn fast.
                Ozzy Osbourne - Tatooed Dancer

Tune down 1/2 step: Eb Ab Db Gb Bb Eb
                
Main Riff:
|-----/---|-------------------------------------------------------|
|----/----|-------------------------------------------------------|
|---/-----|-------------------------------------------------------|
|--/------|------------------8ph/7--------------------------------|
|-/scr*pe-|-7-7--87667--5-7--6ph/5--7-7--87665-5-7-7--0656--------|
|/--------|-5-5---------3-5---------5-5--------3-5-5--------------|

Secondary Riff:

|----------------------------------------|
|----------------------------------------|
|--7-9-10--7-9-10--7-9-10--7-9-10-------.|
|----------------------------------5-5--.|
|----------------------------------3-3---|
|----------------------------------------|

Bridge:                 X4-------------------->
|-------------------/--|-----------------------|
|------------------/---|-----5-----7-----8-7---|
|-----------------/----|-----5-----7-----8-7---|
|--7-10-9-12-12--/-----|-----5-----7-----8-7---|
|--5-8--7-10-10-/scr*pe|-7-7---7-7---7-7-------|
|----------------------|-5-5---5-5---5-5-------|

Interlude:
|--------------------------------------------------|
|--------------------------------------------------|
|-------------------------------------------------.|
|-------------------5-3--5ph-3-5-3-5-3--7--3------.|
|-5ph--3-5-3-5-3-5--3-1--3ph-1-3-1-3-1--5--1--5----|
|-3ph--1-3-1-3-1-3----------------------------3----|

|--------------------------------------------------|
|--------------------------------------------------|
|-5ph---5---5--8--7/8\7/8\7/8\7--------------------|
|-3ph-0-3-0-3--6--5/6\5/6\5/6\5--5-3-5-3-5-3-5-3---|
|--------------------------------3-1-3-1-3-1-5-1-5-|
|------------------------------------------------3-|

|--------------------------------------------------------------------|
|--------------------------------------------------------------------|
|--------------------------------------------------------------------|
|--------------------------------------------------------------------|
|-2-3----------------------------------------------------------------|
|-0-1-1-111-111-111-111-111-111-111-111-111-111-111-111 etc etc etc--|
            
Hard to play? Try these video lessons and learn fast. | Correct




comments powered by Disqus
↑ Back to top | Tablatures and chords are parodies/interpretations of the original songs. You may use it for private study, scholarship, research or language learning purposes only