>
 >
S.A.T.O.

S.A.T.O. Bass Tabs

Ozzy Osbourne - S.A.T.O. chords, tabs, tablatures, lyrics

Guitar lessons | Add/correct | Request | Top 50 tabs Artists:  A B C D E F G H I J K L M N O P Q R S T U V W X Y Z 0-9

S.A.T.O. Bass Tabs – Ozzy Osbourne

CD, Sheet music, Poster

Do you like S.A.T.O.? Share with your friends now
Bass Tabs
Ozzy Osbourne
S.A.T.O - Dairy of a Madman

Intro x 4
G--9-------9---------
D--------------------
A--------------------
E------0--------0-0--

Into first Verse.
G-------------
D-------------
A--7--10p9-7--
E-------------

Verse
G-----------------------------------------------------------------------
D-----------------------------------------------------------------------
A--/7-7-7-7--7--7-7-\3-3-3-3--3-3--3\-0-0-0-0--0-0---0--2-2-0h2p0-------
E--------------------------------------------------3--------------3--2--

Chorus x 3
G----------------------------
D-------------5-----5-----5--
A----------------------------
E--3--3-3--3-----3-----3-----

Fill 1				
G--12--12--12---------------
D--------------12-----------
A------------------10--10/--
E---------------------------

Chorus x 2
G----------------------------
D-------------5-----5-----5--
A----------------------------
E--3--3-3--3-----3-----3-----

Fill 2				
G----------------------------------------
D-------------3-3-3-3h5------------------
A------------------------------------5---
E--3--3-3-3-3------------3-3-3-3-3-3-----

Verse

Chorus x 3
G----------------------------
D-------------5-----5-----5--
A----------------------------
E--3--3-3--3-----3-----3-----

Fill 1				
G--12--12--12--12-----------
D------------------12-------
A----------------------10/--
E---------------------------

Chorus x 2
G----------------------------
D-------------5-----5-----5--
A----------------------------
E--3--3-3--3-----3-----3-----

Fill 2				
G-------12-------12-------10--------10--------
D--/12-----12-------12-------12--------12-----
A-------------10-------10-------10--------10--
E---------------------------------------------

Interlude       x 2
G--------|--------------------|------------------------------------
D--------|--2--2--------------|--2--2-------------------4-4--------
A--------|--------0--0--2--2--|--------0--0------------------2--4--
E--7-7---|--------------------|--------------2--2-2--2-2-----------

G--------------------------|-----|-------------
D--------------------------|-----|-------------
A--5--5-5-5--5-/-7---------|--R--|--7--10p9-7--
E--------------------0--0--|-----|-------------

Solo
G---------------------------------------------------
D---------------------------------------------------
A--4--4-4-4-4-2-2---4--4-4-4-4-2-2---4--4-4-4-4-2-2----
E-----------------4----------------4----------------4--

G--------------6-4---4-6-4--
D------------6-----6--------
A--4-4-4---2----------------
E--------4------------------

G------------------------------------------------------------------------
D------------------------------------------------------------------------
A--4--4-4-4-4---2-2--4---2-2--4---2-2--4---2-2--4---2h4-4-4-4-4-4-4-4-4--
E-------------4--------4--------4--------4--------4----------------------

Solo
G--------------------------------------------------------------------------------
D------------------------------------------------8h9-----------------------------
A--7-7-7-7-7-7-7-5-5-5h7-7-7------------5h7-7-7------10-7--/5-----7-7-7-7-7p5h7--
E--------------------------0--0-0-0-0-0-----------------------0-0----------------


G--------------------------------------------------------------------
D-------------------8h9----------------------------------------------
A--7-7-7-----7-7--------10-7-7-7-7-7-7-7-5-7-5-------7-7-7-7-7-7-7/--
E--------0-0-----0-----------------------------0-0-0-----------------
G-------------------
D--8h9--------------
A------10-7---------
E-----------10-7-5--

Solo
G------------------------------------------------------------------------------
D-------------------------3-3-3-5-3---------3-3-3-5--3-3-3-5-3-----------------
A------------------------------------------------------------------------------
E--3-3-3-3-3-3-3-0-1-2-3-3----------0-1-3-3--------------------0-1-1-0--3-0-1--

G------------------------------------------------------------------------
D------3-3-3-5-3---------3-3-3-5-3---------3-3-3-5--5--5--5--5--5--3-----
A---------------------------------------------------------------------5--
E--3-3-----------0-1-2-3-----------0-1-2-3-------------------------------

		x2
G--------|----------------|------------------------------------------------
D--------|--2-2-----------|--2-2-------4-4--------4-4----------------------
A--------|------0-0--2-2--|-------0-0-----------------2-4-5-5-5-5-5 /7-----
E--7-7\--|----------------|----------------2-2-2-2----------------------0--

End Solo
G------------------------
D------------------------
A----R--------7--10p9-7--
E------------------------

repeat Verse x 4

Chorus x 3
G----------------------------
D-------------5-----5-----5--
A----------------------------
E--3--3-3--3-----3-----3-----

Fill 1				
G----------------------
D--3--5-------5--3--5--
A----------------------
E-------3--3-----------

Chorus x 3
G----------------------------
D-------------5-----5-----5--
A----------------------------
E--3--3-3--3-----3-----3-----

Fill 2				
G-------12-------10---------
D--/12-----12-------12------
A-------------10-------10\--
E---------------------------

Pre-Outro
G-------------------------------------------------------------------
D------------------------------------------------------7-8-9--------
A--7-7-7-7-7-7-7--7-7-7-7------------/7-7-7-7-7-7-7-7--------5-6-7--
E-------------------------0--0-0-0-0--------------------------------

G-------------------------------------------------------------------
D-------------------------------------------------------7-8-9--------
A--------------7-7p5-7-7-----------7-7p5--7-7-7-7-7-7-7-------5-6-7--
E--0-0-0-0-0-0-----------0-0-0-0-0-----------------------------------

G---------------------------------------------------------------------------
D--------------8h9-------------------8h9-----------------------7-8-9--------
A--7---------------10-7------------7-----10-7-----7-7-7-7-7-7--------5-6-7--
E----0-0-0-0-0-----------0-0-0-0-0------------0-0---------------------------

G------------------------------------------------------------------
D-----------------------------------------------------7-8-9--------
A--------------7-7p5--------------2-----------7-7-7-7-------5-6-7--
E--0-0-0-0-0-0-------0-0-0-0-0-0----3-0-0-0-0----------------------

Outro
G-------------------------------------
D--------R--------R--------R----------
A-------------------------------------
E--0--0-----0--0-----0--0-----0--0----





Comments


Popular Ozzy Osbourne tabs & chords
Centre Of Eternity Bass Tabs
Perry Mason Bass Tabs
Mama Im Coming Home Chords
11 Silver Tabs
Flying High Again 3 Tabs
Hellraiser Tabs
I Dont Want To Change The World 1 Tabs
Rock N Roll Rebel Intro Tabs
Walk On Water Tabs
Sato Ukulele


Song lyrics



↑ Back to top | Tablatures and chords are parodies/interpretations of the original songs. You may use it for private study, scholarship, research or language learning purposes only
© 2014 AZChords.com Contact us | Privacy policy | DMCA | Add/correct tabs | Request tabs | Top 50 tabs