» » »

Mississippi Queen Tabs (ver.1)

Artists:  A B C D E F G H I J K L M N O P Q R S T U V W X Y Z # 

Mississippi Queen Tabs (ver.1)

Ozzy Osbourne
Rating:
0/5 (0 votes)

Hard to play? Try these video lessons and learn fast.
                This is most of the song but all of the solo

/=bend  up
\=bend down
/\=bend up then down
+=pre bend
h=hammer on
p=pull off
“=pinch harmoic

So I tabbed this out a while ago and just came across it but am not sure for some of the 
where its at so yea.

Intro
             2X             intro solo
e-----------|------19-------------------------------------------------------|
B-----------|-19/----19\--17----------------17-19/--17—20/---20-17----------|
G-----------|------------------18-16-16-18----------------------------------|
D-------5---|---------------------------------------------------------------|
A---------7-|---------------------------------------------------------------|
E--5-7------|---------------------------------------------------------------|

Main verse/riff
                            (1)           (2)
e-------------|-----------|---------------------------------------------|
B-------------|-----------|---------------------------------------------|
G-------------|-----------|---------------------------------------------|
D—7h9--9-9-9--|-----------|---------------------------------------------|
A—5h7--7-7-7--|-------5-7-|--------2------------------------------------|
E-------------|0-3-0------|-0-3-0---------------------------------------|

                           (1)               (2)
e--------------|----------|--------------------------------------------|
B--------------|----------|--------------------------------------------|
G--------------|---7---5—7|-----7--7-----------------------------------|
D---5h7--7-7-7-|----------|--------------------------------------------|
A---3h5--5-5-5-|-5---5----|--5---5-------------------------------------|
E--------------|----------|--------------------------------------------|

Bridge                         Solo
                         2X
e-------------------|------19-------------------------------------------------|
B-------------------|-19/------19\--17--17-17-19/-19/-19/-17------------------|
G--9-8-7------------|---------------------------------------------------------|
D---------8--7-5-7-5|---------------------------------------------------------|
A-------------------|---------------------------------------------------------|
E-------------------|---------------------------------------------------------|
                                                 More solo
e---19/-19-19p17------------|---------------------------------------|
B—-----------------20p17----|------12-------------------7”----------|
G---------------------------|--11/----11/--11/\9p6h9----------------|
D---------------------------|---------------------------------------|
A---------------------------|---------------------------------------|
E---------------------------|---------------------------------------|

Ok so I am not sure where this solo section is at exactly, cause there is a lot of 
in here so I hope your ear can pin the section for you.

e---------------------------------------------------------------|
B-------------12-----12/--12-11-10-------------12---------------|
G—11/-11/----11/------------------12p9—11/----11/\--9-----------|
D---------------------------------------------------------------|
A---------------------------------------------------------------|
E---------------------------------------------------------------|

Still soloing
e----------------------------------------------------------------------------|
B------------------------------------------------------------------------12--|
G—12/-12/--9---------9--------9---+12/\--12-9----15/-15p12--15---------------|
D----------------------------------------------------------------------------|
A----------------11p10—11p10-------------------------------------------------|
E----------------------------------------------------------------------------|

e----------------------------------------------------17/\-15------|
B—15p12-------17/--17/--17/--17/\---15”--------------17-----------|
G-----------12----------------------------------------------------|
D-----------------------------------------------------------------|
A-----------------------------------------------------------------|
E-----------------------------------------------------------------|

Separate solo I think
e-------------------------------------------------------------------|
B---5—7/-7/-7/\p5---5-5-5p3-5--5-7/-7/-7/-7/-7/-7/-7/\-5h7p5-7/-----|
G-------------------------------------------------------------------|
D-------------------------------------------------------------------|
A-------------------------------------------------------------------|
E-------------------------------------------------------------------|

e--------------------------|-------------------------------------|
B—7/--5-7---5--7—2”--------|-------------------------------------|
G------------6-------------|---------------9--12-13-12/--12—9----|
D--------------------------|---9—11/-11--------------------------|
A--------------------------|-------------------------------------|
E--------------------------|-------------------------------------|

e---------19------19-------19-------------------------------19/-19/-----------|
B---19/------19/-----19/-------19/-19/-19/-19/-19/-19/------------------------|
G-----------------------------------------------------------------------------|
D-----------------------------------------------------------------------------|
A-----------------------------------------------------------------------------|
E-----------------------------------------------------------------------------|

e--------------------------------------------------------------------------|
B---17---19------17----20/--20-17-----17—---17/--17/-----------------------|
G--------------18----------------------18----------------------------------|
D--------------------------------------------------------------------------|
A--------------------------------------------------------------------------|
E--------------------------------------------------------------------------|

Ok so there is a lot of soloing in this that wasn’t in the original version but it is a good song
So yea, have a nice day.
            
Hard to play? Try these video lessons and learn fast. | Correct




comments powered by Disqus
↑ Back to top | Tablatures and chords are parodies/interpretations of the original songs. You may use it for private study, scholarship, research or language learning purposes only