>
 >
I Want It More

I Want It More Guitar Tabs

Ozzy Osbourne - I Want It More chords, tabs, tablatures, lyrics

Guitar lessons | Add/correct | Request | Top 50 tabs Artists:  A B C D E F G H I J K L M N O P Q R S T U V W X Y Z 0-9

I Want It More Guitar Tabs – Ozzy Osbourne

CD, Sheet music, Poster

Do you like I Want It More? Share with your friends now
Tabs
Track: 09
Tuning: Drop D


NOTE:
This is not an exact representation of this song. Though I believe there is
only one guitarist used, (Gus G. ;]) there are a couple of guitar tracks
overdubbed. At times (such as the chorus) I just blend them into one guitar
part so I can play it by myself. I also play the piano parts during the
intro and the break. Clean of course and with some slight delay. This is the
song "I Want It More" in its entirety, the way that I play it. I hope you
enjoy it :) Please rate and comment!


Intro - Piano/keyboard intro Arr. for guitar:

 (let ring)
|----------------------^5-^4----------^11--|
|----10---9---------^3-|3-|4-^4-------|11--|
|-7-----------------|2-------|3------------|
|------------------------------------------|
|-0----------------------------------------|
|-0----------------------------------------|

guitar intro:
(distortion)
|-------------------------------|--------------------------|
|-------------------------------|--------------------------|
|-------------------------------|--------------------------|
|-------------------------------|--------------------------|
|-5br-3-0-------5~-3-0-------5~-|--5br-3-0-------6~-8/3--5-|
|---------5-3-0--------5-3-0----|----------5-3-0-6~-8/3--5-|

------------------------------------------------------|
------------------------------------------------------|
------------------------------------------------------|
------------------------------------------------------|
-5br-3-0-------5~---8---7-6*---3-5-----5-3------------|
---------5-3-0----0---0------0-3-5---0-5-3--0-5br-3-0-|

Verse 1:

|------------------------------------------------------------------------------------------------|
|------------------------------------------------------------------------------------------------|
|------------------------------------------------------------------------------------------------|
|------------------------------------------------------------------------------------------------|
|-0--0-0-0-0-3--0-0-0-0-3--0-0-0-0-0-0-3-0-0-3---0--0-0-0-0-3--0-0-0-0-3--0-0-0-0-0-0-3-0-0-3----|
|-0--0-0-0-0-3--0-0-0-0-3--0-0-0-0-0-0-3-0-0-3---0--0-0-0-0-3--0-0-0-0-3--0-0-0-0-0-0-3-0-0-3----|
pm.  . . . . .  . . . . .  . . . . . .   . .     .  . . . . .  . . . . .  . . . . . .   ..
---------------------------------------------------------------------------------------|
---------------------------------------------------------------------------------------|
---------------------------------------------------------------------------------------|
---------------------------------------------------------------------------------------|
-0--0-0-0-0-3--0-0-0-0-3--0-0-0-0-0-0-3-0-0-3---0--0-0-0-0-3--0-0-0-0-3--5br-0-5-0-3/5-|
-0--0-0-0-0-3--0-0-0-0-3--0-0-0-0-0-0-3-0-0-3---0--0-0-0-0-3--0-0-0-0-3--5br-0-5-0-3/5-|
 .  . . . . .  . . . . .  . . . . . .   . .     .  . . . . .  . . . . .


[[repeat verse riff twice]]


Pre-Chorus:

|---------------------------------------------------------|
|---------------------------------------------------------|
|---------------------------------------------------------|
|---------------------------------------------------------|
|-5\3-0-0--0-4\3-0-0--0-3--3--4\3-0-0--0--3-3-0-0--0-3--3-|
|-5\3-0-0--0-4\3-0-0--0-3--3--4\3-0-0--0--3-3-0-0--0-3--3-|

|---------------------------------------------------------|
|---------------------------------------------------------|
|---------------------------------------------------------|
|---------------------------------------------------------|
|-5\3-0-0--0-4\3-0-0--0-3--3--4\3-0-0--0--3-3-0-0--0-3--3-|
|-5\3-0-0--0-4\3-0-0--0-3--3--4\3-0-0--0--3-3-0-0--0-3--3-|


Chorus:

|---------------------------------------------------------------------------------------------|
|----7-5----6----------------------------5-6-5-------------8-9-8------------------------------|
|-7--7---7--x---------------5-------5----------7-5-----8---------10-8-7-----------------------|
|-0--7------3---------------5-------5--------------7-5-8----------------10-8-6-5h6-5h6-5h6-5\-|
|-0---------3-----------x-x-3---/3---------------------6--------------------------------------|
|-0---------3-----------x-x-------------------------------------------------------------------|

-------------------------------------------------------------------------------------------|
-----7-5----6----------------------------5-6-5---------------------------------------------|
--7--7---7--x---------------5-------5----------7-5-----8-----------------------------------|
--0--7------3---------------5-------5--------------7-5-8----------8\7-----8\7--------------|
--0---------3-----------x-x-3---/3---------------------6------1-1-6\5-0-0-6\5-0-0----------|
--0---------3-----------x-x-----------------------------------1-1-----0-0-----0-0----------|

|------------------------------------------------------------------------------------------------|
|------------------------------------------------------------------------------------------------|
|------------------------------------------------------------------------------------------------|
|--------------------------------------------------------------------x--1------------------------|
|-5b(6)r(5)-3-0-------5~-3-0-------5~-5b(6)r(5)-3-0-------5~-3-0---x-x--1------------------------|
|---------------5-3-0--------5-3-0------------------5-3-0--------5-x----1------------------------|

------------------------------------------------------------------------------------------------|
------------------------------------------------------------------------------------------------|
------------------------------------------------------------------------------------------------|
----------------------------------------------------------6---5---3-----------------------------|
-5b(6)r(5)-3-0-------5~-3-0-------5~-5b(6)r(5)-3-0--------6---5---3-----------------------------|
---------------5-3-0--------5-3-0------------------5-3-0--6---5---3-----------------------------|

Verse 2:

|------------------------------------------------------------------------------------------------|
|------------------------------------------------------------------------------------------------|
|------------------------------------------------------------------------------------------------|
|------------------------------------------------------------------------------------------------|
|-0--0-0-0-0-3--0-0-0-0-3--0-0-0-0-0-0-3-0-0-3---0--0-0-0-0-3--0-0-0-0-3--0-0-0-0-0-0-3-0-0-3----|
|-0--0-0-0-0-3--0-0-0-0-3--0-0-0-0-0-0-3-0-0-3---0--0-0-0-0-3--0-0-0-0-3--0-0-0-0-0-0-3-0-0-3----|
pm.  . . . . .  . . . . .  . . . . . .   . .     .  . . . . .  . . . . .  . . . . . .   ..
---------------------------------------------------------------------------------------|
---------------------------------------------------------------------------------------|
---------------------------------------------------------------------------------------|
---------------------------------------------------------------------------------------|
-0--0-0-0-0-3--0-0-0-0-3--0-0-0-0-0-0-3-0-0-3---0--0-0-0-0-3--0-0-0-0-3--5br-0-5-0-3/5-|
-0--0-0-0-0-3--0-0-0-0-3--0-0-0-0-0-0-3-0-0-3---0--0-0-0-0-3--0-0-0-0-3--5br-0-5-0-3/5-|
 .  . . . . .  . . . . .  . . . . . .   . .     .  . . . . .  . . . . .


[[repeat verse riff once]]


Pre-Chorus:

|---------------------------------------------------------|
|---------------------------------------------------------|
|---------------------------------------------------------|
|---------------------------------------------------------|
|-5\3-0-0--0-4\3-0-0--0-3--3--4\3-0-0--0--3-3-0-0--0-3--3-|
|-5\3-0-0--0-4\3-0-0--0-3--3--4\3-0-0--0--3-3-0-0--0-3--3-|

|---------------------------------------------------------|
|---------------------------------------------------------|
|---------------------------------------------------------|
|---------------------------------------------------------|
|-5\3-0-0--0-4\3-0-0--0-3--3--4\3-0-0--0--3-3-0-0--0-3--3-|
|-5\3-0-0--0-4\3-0-0--0-3--3--4\3-0-0--0--3-3-0-0--0-3--3-|


Chorus:

|---------------------------------------------------------------------------------------------|
|----7-5----6----------------------------5-6-5-------------8-9-8------------------------------|
|-7--7---7--x---------------5-------5----------7-5-----8---------10-8-7-----------------------|
|-0--7------3---------------5-------5--------------7-5-8----------------10-8-6-5h6-5h6-5h6-5\-|
|-0---------3-----------x-x-3---/3---------------------6--------------------------------------|
|-0---------3-----------x-x-------------------------------------------------------------------|

-------------------------------------------------------------------------------------------|
-----7-5----6----------------------------5-6-5---------------------------------------------|
--7--7---7--x---------------5-------5----------7-5-----8-----------------------------------|
--0--7------3---------------5-------5--------------7-5-8----------8\7-----8\7--------------|
--0---------3-----------x-x-3---/3---------------------6------1-1-6\5-0-0-6\5-0-0----------|
--0---------3-----------x-x-----------------------------------1-1-----0-0-----0-0----------|


|------------------------------------------------------------------------------------------------|
|------------------------------------------------------------------------------------------------|
|------------------------------------------------------------------------------------------------|
|------------------------------------------------------------------------------------------------|
|-0--0-0-0-0-3--0-0-0-0-3--0-0-0-0-0-0-3-0-0-3---0--0-0-0-0-3--0-0-0-0-3--0-0-0-0-0-0-3-0-0-3----|
|-0--0-0-0-0-3--0-0-0-0-3--0-0-0-0-0-0-3-0-0-3---0--0-0-0-0-3--0-0-0-0-3--0-0-0-0-0-0-3-0-0-3----|

|------------------------------------------------------------------------------------------------|
|------------------------------------------------------------------------------------------------|
|------------------------------------------------------------------------------------------------|
|------------------------------------------------------------------------------------------------|
|-0--0-0-0-0-3--0-0-0-0-3--0-0-0-0-0-0-3-0-0-3---0--0-0-0-0-3--0-0-0-0-3--0-0-0-0-0-0-3-0-0-3----|
|-0--0-0-0-0-3--0-0-0-0-3--0-0-0-0-0-0-3-0-0-3---0--0-0-0-0-3--0-0-0-0-3--0-0-0-0-0-0-3-0-0-3----|


Solo:
------------------------------------------------------------------------------------------------|
-------------------------------------------------------------------------12--15-----------------|
-12-14-12-10-------12-13-12-10-------12-14-12-10-------12-13-12-10-------10b-13b----------------|
-------------12-10-------------12-10-------------12-10-------------12-10------------------------|
------------------------------------------------------------------------------------------------|
------------------------------------------------------------------------------------------------|
slight palm mute - - - - - - - - - - - - - - - - - - - - - - - - - - - |

------------------------------------------------------------------------------------------------|
-------------------------------------------------------------------------12--15-----------------|
-12-14-12-10-------12-13-12-10-------12-14-12-10-------12-13-12-10-------10b-13b----------------|
-------------12-10-------------12-10-------------12-10-------------12-10------------------------|
------------------------------------------------------------------------------------------------|
------------------------------------------------------------------------------------------------|
slight palm mute - - - - - - - - - - - - - - - - - - - - - - - - - - - |
                       32nd notes     /==3===\             /==3===\
--------------------------------------15h17p15----15h17h20-17h20p17-15h17----13h15p13-----------|
-13b(15)r(13)-13b(15)~-15h18-13-15h18----------18-------------------------18----------15h18-13--|
------------------------------------------------------------------------------------------------|
------------------------------------------------------------------------------------------------|
------------------------------------------------------------------------------------------------|
------------------------------------------------------------------------------------------------|

 /==3===\          /==3===\
------------------------------------------------------------------------------------------------|
-13h15p13----------10h13p10----10---------------------------------------------------------------|
----------14h17-12----------12----10--12b(14)r(12)p10----10-------------------------------------|
------------------------------------------------------12----12~---------------------------------|
------------------------------------------------------------------------------------------------|
------------------------------------------------------------------------------------------------|

[very fast]:
------------------------------------------------------------------------------------------------|
---------------------------------------------------------------------------------------10h13h15-|
-----------------------------------------------------7h10h12-7h10h12-10h12h14-10h12h14----------|
-------------0h3h5-0h3h5-3h5h7-3h5h7-7h10h12-7h10h12--------------------------------------------|
-0h3h5-0h3h5------------------------------------------------------------------------------------|
------------------------------------------------------------------------------------------------|

----------10h13h15-10h13h15-15p13-13-17p13-13-19h20p19---------------20-------------------------|
-10h13h15---------------------------------------------20p18-20b(22)----20pb(22)r(20)-18-20------|
------------------------------------------------------------------------------------------------|
------------------------------------------------------------------------------------------------|
------------------------------------------------------------------------------------------------|
------------------------------------------------------------------------------------------------|


--------------------------------------------------------------------------------------------------|
-15----------------14----------------13----------------12----------------11-----------------------|
----16-15-14-13-14----15-14-13-12-13----14-13-12-11-12----13-12-11-10-11----12-11-10-14b-14p13p12-|
--------------------------------------------------------------------------------------------------|
--------------------------------------------------------------------------------------------------|
--------------------------------------------------------------------------------------------------|

-----------------------------------------------------------------------------------------10tr11-|
------------------------------------------------------------------------------------9tr10-------|
-12h13p12/10-12-10-9-10-9----9p7/5-7p5---5--------------------------------------7tr8------------|
--------------------------10-----------7---7-5-7-5---5--------------------7-6tr7----------------|
---------------------------------------------------8---8-5-5b(8)r(5)~~-~------------------------|
------------------------------------------------------------------------------------------------|

-------------15b(17)-16~---16!!-17!!-19!!-20!!-20b(22)~~~---------------------------------------|
-13b(15)~---------------------------------------------------------------------------------------|
------------------------------------------------------------------------------------------------|
------------------------------------------------------------------------------------------------|
------------------------------------------------------------------------------------------------|
------------------------------------------------------------------------------------------------|

bridge:
------------------------------------------------------------------------------------------------|
------------------------------------------------------------------------------------------------|
------------------------------------------------------------------------------------------------|
-------------------------5---5---------------------------0--------------------------------------|
-5-----6-----5-----6-----3---3---5-----6-----5-----0-1-3---3-1-0--------------------------------|
---0-0---0-0---0-0---0-0---0-------0-0---0-0---0-0----------------------------------------------|

------------------------------------------------------------------------------------------------|
------------------------------------------------------------------------------------------------|
------------------------------------------------------------------------------------------------|
-------------------------5---5------------------------------------------------------------------|
-5-----6-----5-----6-----3---3---5-----6-----5-----5-/6-8-8h9p8p6-5-3---------------------------|
---0-0---0-0---0-0---0-0---0-------0-0---0-0---0-0----------------------------------------------|

------------------------------------------------------------------------------------------------|
------------------------------------------------------------------------------------------------|
------------------------------------------------------------------------------------------------|
-------------------------5---7--------------------------5---------------------------------------|
-5-----6-----5-----6-----3---5--5-----6-----5-----6-----3---6*~---------------------------------|
---0-0---0-0---0-0---0-0---0------8-8---8-8---8-8---8-8---0-------------------------------------|

------------------------------------------------------------------------------------------------|
------------------------------------------------------------------------------------------------|
------------------------------------------------------------------------------------------------|
-------------------------5---7--------------------------5---------------------------------------|
-5-----6-----5-----6-----3---5--5-----6-----5-----6-----3---6*~---------------------------------|
---0-0---0-0---0-0---0-0---0------8-8---8-8---8-8---8-8---0-------------------------------------|

-----------------------------------11----15-11--------------------------------------------------|
----------------------------12-11-----13-------13-----------------------------------------------|
-------------------10-11-13-----------------------12--------------------------------------------|
---------9-11-9-13-----------------------------------13-----------------------------------------|
-9-11-12------------------------------------------------15-12~----------------------------------|
------------------------------------------------------------------------------------------------|

break, piano arr for guitar:
--5---4-----------------------------------------------------------------------------------------|
----------7---6-------6h7-6-------6---9--------9h11-12----11--------12----11--------------------|
----6---6---6-----8-----------8-----------11--------------------13--------------13--------------|
----------------7---7-------8---8---8---9----9---------13----13--------12----12-----------------|
------------------------------------------------------------------------------------------------|
------------------------------------------------------------------------------------------------|

-----------------------------------------------------------15-----------------------------------|
-8----------------------8---------9----------12-14-16-18-16-------------------------------------|
------10----10h12---8-------10h12---12-13-15----------------------------------------------------|
---10----10-----------9---9---------------------------------------------------------------------|
------------------------------------------------------------------------------------------------|
------------------------------------------------------------------------------------------------|

Solo 2:
--------------------------------------------------------------------------------------------------|
-----____________------_---------_________-13-----__---------___________-------__-----------------|
-12b/--------------12b/-\-10-12b/-------------12pb--\-10-12b/--------------12b/--\-10-12~-10~-----|
----------------------------------------------------------------------------------------------12~-|
--------------------------------------------------------------------------------------------------|
--------------------------------------------------------------------------------------------------|

Pre-Chorus:

|---------------------------------------------------------|
|---------------------------------------------------------|
|---------------------------------------------------------|
|---------------------------------------------------------|
|-5\3-0-0--0-4\3-0-0--0-3--3--4\3-0-0--0--3-3-0-0--0-3--3-|
|-5\3-0-0--0-4\3-0-0--0-3--3--4\3-0-0--0--3-3-0-0--0-3--3-|

|---------------------------------------------------------|
|---------------------------------------------------------|
|---------------------------------------------------------|
|---------------------------------------------------------|
|-5\3-0-0--0-4\3-0-0--0-3--3--4\3-0-0--0--3-3-0-0--0-3--3-|
|-5\3-0-0--0-4\3-0-0--0-3--3--4\3-0-0--0--3-3-0-0--0-3--3-|


Chorus:

|---------------------------------------------------------------------------------------------|
|----7-5----6----------------------------5-6-5-------------8-9-8------------------------------|
|-7--7---7--x---------------5-------5----------7-5-----8---------10-8-7-----------------------|
|-0--7------3---------------5-------5--------------7-5-8----------------10-8-6-5h6-5h6-5h6-5\-|
|-0---------3-----------x-x-3---/3---------------------6--------------------------------------|
|-0---------3-----------x-x-------------------------------------------------------------------|

-------------------------------------------------------------------------------------------|
-----7-5----6----------------------------5-6-5---------------------------------------------|
--7--7---7--x---------------5-------5----------7-5-----8-----------------------------------|
--0--7------3---------------5-------5--------------7-5-8----------8\7-----8\7--------------|
--0---------3-----------x-x-3---/3---------------------6------1-1-6\5-0-0-6\5-0-0----------|
--0---------3-----------x-x-----------------------------------1-1-----0-0-----0-0----------|

Outro:
|-------------------------------|--------------------------|-------------------------------------|
|-------------------------------|--------------------------|-------------------------------------|
|-------------------------------|--------------------------|-------------------------------------|
|-------------------------------|--------------------------|-------------------------------------|
|-5br-3-0-------5~-3-0-------5~-|--5br-3-0-------6~-8/3--5-|-5br-3-0-------5~---8---7-6*---3-5---|
|---------5-3-0--------5-3-0----|----------5-3-0-6~-8/3--5-|---------5-3-0----0---0------0-3-5---|

------------------|
------------------|
------------------|
------------------|
---5-3----------0-|
-0-5-3--0-5br-3-0-|

************************************

| !!  tremolo pick
| tr  trill
| /   slide up
| \   slide down
| h   hammer-on
| p   pull-off
| ~   vibrato
| +   harmonic
| *   pinch harmonic
| x   Mute note
| b   Bend
| pb  Pre-bend
| br  Bend release
| pbr Pre-bend release
| brb Bend release bend
| b(n)bend to note shown in ( )

************************************

Please rate and comment





Comments


Popular Ozzy Osbourne tabs & chords
Civilize The Universe Bass Tabs
I Dont Know Bass Tabs
I Dont Wanna Stop Bass Tabs
Dee 2 Tabs
Dreamer 2 Tabs
Iron Man Tribute Tabs
Killer Of Giants 1 Tabs
Mr. Crowley 1 Tabs
No More Tears 4 Tabs
Back On Earth Ukulele


Song lyrics



↑ Back to top | Tablatures and chords are parodies/interpretations of the original songs. You may use it for private study, scholarship, research or language learning purposes only
© 2014 AZChords.com Contact us | Privacy policy | DMCA | Add/correct tabs | Request tabs | Top 50 tabs