» » »

Ozzy Osbourne, I Dont Wanna Change The World Tabs (ver.1)

Artists:  A B C D E F G H I J K L M N O P Q R S T U V W X Y Z # 

I Dont Wanna Change The World Tabs (ver.1)

Ozzy Osbourne Tabs
 Rating:
4/5 (4 votes)
I Dont Wanna Change The World lessons Tabs too difficult? Try these video lessons and learn fast
1
                Ozzy Osbourne
I Dont Wanna Change the World
(Ozzy Osbourne/Zakk Wylde/Randy Castillo/Lemmy Kilmister)

The Tuning for this song is D SHARP (D#) I will label the bars in the first line for reference.

This is your main riff. You will play it unless otherwise instructed.
--------------------------------------------
-----------------------------1(2)ph-1(2)ph--
-2-2-5-5/7-2-2-2-2-2-5/7-2-2----------------
-2-2-5-5/7-2-2-2-2-2-5/7-2-2----------------
-0-0-3-3/5-0-0-0-0-0-3/5-0-0----------------
--------------------------------------------

Refrain:
---------------7(9)-7-1---1-------------2(4)ph---2(4)ph---2(4)ph-
------------------------4-------3-3-3-3--------------------------
-2---------2-2--------------2---0-0-0-0--------------------------
-2-2-5-5-5-2-2--------------2-2-0-0-0-0--------------------------
-0-2-5-5-5-0-0--------------0-2----------------0--------0--------
-----3-3-3----------------------3-3-3-3--------------------------

Solo Intro:
-
-
---------------------------------4-2-
-2-4-4-4-4-4-4-2-4-4-4-2-4-4-4-2-4-2-
-2-4-4-4-4-4-4-2-4-4-4-2-4-4-4-2-2-0-
-0-2-2-2-2-2-2-0-2-2-2-0-2-2-2-2-----

I DONT KNOW THE SOLO, BUT IF ANY OF YOU DO, PLEASE EMAIL IT TO ME AND I WILL PUT IT IN (GIVING YOU PROPER CREDIT OF COURSE)
            
Submit corrections

comments powered by Disqus
↑ Back to top | Ozzy Osbourne Tabs for I Dont Wanna Change The World. Lyrics for acoustic guitar and electric guitar. 1 Tablatures and chords are parodies/interpretations of the original songs. You may use it for private study, scholarship, research or language learning purposes only