» » »

Ozzy Osbourne, Gets Me Through Yeh Tabs (ver.1)

Artists:  A B C D E F G H I J K L M N O P Q R S T U V W X Y Z # 

Gets Me Through Yeh Tabs (ver.1)

Ozzy Osbourne Tabs
 Rating:
4/5 (4 votes)
Gets Me Through Yeh lessons Tabs too difficult? Try these video lessons and learn fast
                
Intro (not piano) (dist.)

E --------------------------------------------
B --------------------------------------------
G --------------------------------------------
D -------------------------------------0h2----
A -------4-----4-----------4-------0h2--------
E -0-0-0-2-0-0-2-0-0-0-0-0-2-0-0-0------------

Verse (dist.)

E --------------------------------------
B --------------------------------------
G --------------------------------------
D --------------------------------------
A -2-2-2-2-2-2-2-2-2-2-2-2-2-2-2-2------
E -0-0-0-3-0-0-3-0-0-0-0-0-3-0-0-3------

Chorus (dist.)

E -----------------------------------------
B -----------------------------------------
G -----------------------------------------
D ------------------------------------0h2--
A -------4-----4-----------4-------0h2-----
E -0-0-0-2-0-0-2-0-0-0-0-0-2-0-0-0---------


OZZY RULES!
            
Submit corrections

comments powered by Disqus
↑ Back to top | Ozzy Osbourne Tabs for Gets Me Through Yeh. Lyrics for acoustic guitar and electric guitar. Tablatures and chords are parodies/interpretations of the original songs. You may use it for private study, scholarship, research or language learning purposes only