>
 >
Fool Like You

Fool Like You Guitar Tabs

Ozzy Osbourne - Fool Like You chords, tabs, tablatures, lyrics

Guitar lessons | Add/correct | Request | Top 50 tabs Artists:  A B C D E F G H I J K L M N O P Q R S T U V W X Y Z 0-9

Fool Like You Guitar Tabs – Ozzy Osbourne

CD, Sheet music, Poster

Do you like Fool Like You? Share with your friends now
Tabs
OZZY - FOOL LIKE YOU - THE ULTIMATE SIN - 1986

Intro
  Moderate Rock Q=124
  N.C.                                                        E5
 4/4
  Gtr II
   E   E   E   E   E   E   E   E     E    E   E   E   Q    Q
|-----<5>---------<5>---------<5>-|------<5>---------<5>--------|
|---------<5>---------<5>---------|----------<5>----------------|
|-<3>---------<3>---------<3>-----|-<3>----------<3>------<3>---|
|---------------------------------|-----------------------------|
|---------------------------------|-----------------------------|
|---------------------------------|-----------------------------|
|
| Gtr I
|  W                                 H..                      E
|---------------------------------|-----------------------------|
|---------------------------------|-----------------------------|
|---------------------------------|-----------------------------|
|---------------------------------|---------------------------2-|
|---------------------------------|---------------------------2-|
|---------------------------------|---------------------------0-|


                                                           G5
   E   E   E   E   E   E   E   E     E    E   E   E   H
|-----<5>---------<5>---------<5>-|------<5>---------<5>-----|
|---------<5>---------<5>---------|----------<5>-------------|
|-<3>---------<3>---------<3>-----|-<3>----------<3>---------|
|---------------------------------|--------------------------|
|---------------------------------|--------------------------|
|---------------------------------|--------------------------|
|
| +W                                +H..                   E
|---------------------------------|--------------------------|
|---------------------------------|--------------------------|
|---------------------------------|--------------------------|
|-(2)-----------------------------|-(2)--------------------5-|
|-(2)-----------------------------|-(2)--------------------5-|
|-(0)-----------------------------|-(0)--------------------3-|


                                                           B5
   E   E   E   E   E   E   E   E     E    E   E   E   H
|-----<5>---------<5>---------<5>-|------<5>-----------------|
|---------<5>---------<5>---------|----------<5>-----<3>-----|
|-<3>---------<3>---------<3>-----|-<3>----------<3>---------|
|---------------------------------|--------------------------|
|---------------------------------|--------------------------|
|---------------------------------|--------------------------|
|
| +W                                +H..                   E
|---------------------------------|--------------------------|
|---------------------------------|--------------------------|
|---------------------------------|------------------------4-|
|-(5)-----------------------------|-(5)--------------------4-|
|-(5)-----------------------------|-(5)--------------------2-|
|-(3)-----------------------------|-(3)----------------------|


                                                           F5
   E   E   E   E   E   E   E   E     E    E   E   E   H
|-----<5>---------<5>---------<5>-|------<5>---------<5>-----|
|---------<5>---------<5>---------|----------<5>-------------|
|-<3>---------<3>---------<3>-----|-<3>----------<3>---------|
|---------------------------------|--------------------------|
|---------------------------------|--------------------------|
|---------------------------------|--------------------------|
|
| +W                                +H..                   E
|---------------------------------|--------------------------|
|---------------------------------|--------------------------|
|-(4)-----------------------------|-(4)----------------------|
|-(4)-----------------------------|-(4)--------------------3-|
|-(2)-----------------------------|-(2)--------------------3-|
|---------------------------------|------------------------1-|


                                                                 E5
   E   E   E   E   E   E   E   E     E    E   E   E   E   E   E   E
|-----<5>---------<5>---------<5>-|------<5>---------<5>-------------|
|---------<5>---------<5>---------|----------<5>---------<5>-----<3>-|
|-<3>---------<3>---------<3>-----|-<3>----------<3>---------<3>-----|
|---------------------------------|----------------------------------|
|---------------------------------|----------------------------------|
|---------------------------------|----------------------------------|
|
| +W                                +H..                          E
|---------------------------------|----------------------------------|
|---------------------------------|----------------------------------|
|---------------------------------|----------------------------------|
|-(3)-----------------------------|-(3)---------------------------2--|
|-(3)-----------------------------|-(3)---------------------------2--|
|-(1)-----------------------------|-(1)---------------------------0--|


                                                                G5
   E   E   E   E   E   E   E   E     E   E   E   E   E   E   E   E
|-----<5>---------<5>---------<5>-|-----<5>---------<5>-----<5>-----|
|---------<5>---------<5>---------|---------<5>---------<5>-----<3>-|
|-<3>---------<3>---------<3>-----|-<3>---------<3>-----------------|
|---------------------------------|---------------------------------|
|---------------------------------|---------------------------------|
|---------------------------------|---------------------------------|
|
|      PM-------------------------------------------|
| +E   E   E   E   E   E   E   E     E   E   E   E   E   E   E   E
|---------------------------------|---------------------------------|
|---------------------------------|---------------------------------|
|---------------------------------|---------------------------------|
|-(2)-----------------------------|------------------------------5--|
|-(2)-----------------------------|------------------------------5--|
|-(0)--0---0---0---0---0---0---0--|--0---0---0---0---0---0---2---3--|


                                                                B5
   E   E   E   E   E   E   E   E     E   E   E   E   E   E   E   E
|-----<5>---------<5>---------<5>-|-----<5>---------<5>-------------|
|---------<5>---------<5>---------|---------<5>---------<5>-----<3>-|
|-<3>---------<3>---------<3>-----|-<3>---------<3>---------<3>-----|
|---------------------------------|---------------------------------|
|---------------------------------|---------------------------------|
|---------------------------------|---------------------------------|
|
| +E   E   E   E   E   E   E   E     E   E   E   E   E   E   E   E
|---------------------------------|---------------------------------|
|---------------------------------|---------------------------------|
|---------------------------------|------------------------------4--|
|-(5)-----------------------------|----------------------5---2---4--|
|-(5)-----------------------------|----------------------5---2---2--|
|-(3)--3---3---3---3---3---3---3--|--3---3---3---3---3--------------|


                                                                F5
   E   E   E   E   E   E   E   E     E   E   E   E   E   E   E   E
|-----<5>---------<5>---------<5>-|-----<5>---------<5>-------------|
|---------<5>---------<5>---------|---------<5>---------<5>-----<3>-|
|-<3>---------<3>---------<3>-----|-<3>---------<3>---------<3>-----|
|---------------------------------|---------------------------------|
|---------------------------------|---------------------------------|
|---------------------------------|---------------------------------|
|
|      PM-------------------------------------------|
| +E   E   E   E   E   E   E   E     E   E   E   E   E   E   E   E
|---------------------------------|---------------------------------|
|---------------------------------|---------------------------------|
|-(4)-----------------------------|----------------------4---2------|
|-(4)-----------------------------|----------------------4---2---3--|
|-(2)--2---2---2---2---2---2---2--|--2---2---2---2---2-----------3--|
|---------------------------------|------------------------------1--|


                                     \2.5______________/
   E   E   E   E   E   E   E   E     H.               +E    +E
|-----<5>---------<5>---------<5>-|------------------------------||
|---------<5>---------<5>---------|-<3>--------------(<3>)-(<3>)-||
|-<3>---------<3>---------<3>-----|-<3>--------------(<3>)-(<3>)-||
|---------------------------------|------------------------------||
|---------------------------------|------------------------------||
|---------------------------------|------------------------------||
|
|      PM---------------------|
| +E   E   E   E   E   E   E   E     E     E E E E E   E     E
|---------------------------------|------------------------------||
|---------------------------------|------------------------------||
|---------------------------------|------------------------------||
|-(3)-----------------------------|--3-----3-3-3-3-3---3-----3---||
|-(3)-----------------------------|--3-----3-3-3-3-3---3-----3---||
|-(1)--1---1---1---1---1---1---1--|--1-----1-1-1-1-1---1-----1---||


  Esus4     E                       Esus4     Em      C
  Gtr I
  PM|   PM|   PM|                   PM|   PM|   PM|
  E E E E E E E E   Q.   S S H      E E E E E E E E   Q.   S S H
|-----------------|----------0----|-----------------|----------0----|
|-----------------|----------0----|-----------------|-1----0h1-1----|
|-----2-----1-----|-1----0h1------|-----2-----0-----|-0--------0----|
|-----2-----2-----|-2-------------|-----2-----2-----|-2-------------|
|-----------------|---------------|-----------------|-3-------------|
|-0-0---0-0---0-0-|---------------|-0-0---0-0---0-0-|---------------|


  Esus4     Em      D                 D5E5        D5      E5      C5 D5
  PM|   PM|   PM|     PM----------|       PM----|   PM      PM--|
  E E E E E E E E   E E E E E E E E   E E E E E E E E   E E E S S Q  Q
|-----------------|---5---5---------|-----------------|------------------||
|-----------------|-3---5---3-------|-----------------|------------------||
|-----2-----0-----|-2---------2-----|-7-9---------7---|-7-9-------5--7\--||
|-----2-----2-----|-0-----------4---|-7-9---------7---|-7-9-------5--7\--||
|-----------------|---------------5-|-5-7---------5---|-5-7-------3--5\--||
|-0-0---0-0---0-0-|-----------------|-----0-0-0-0---0-|-----0-0-0--------||


   Verse
    $
    D5E5                D Em
                            PM--------|
    E E +Q    E E E E   E E E E E E E E
||--------------------|-----------------|
||o-------------------|-----------------|
||--7-9-(9)\----------|-----------------|
||--7-9-(9)\------4---|-4-5-------------|
||o-------------------|-5-7-------------|
||--------------0---0-|-----0-0-0-0-0-0-|


  D5C5                C
                            PM--------|
  E E +Q    E E E E   E  E  E E E E E E
|-------------------|--------------------|
|-------------------|--------------------|
|-7-5-(5)\------2s5-|--------------------|
|-7-5-(5)\------2s5-|-4p=2---------------|
|-------------------|-3-(3)--------------|
|-------------0-----|-------0-0-0-0-0-0--|


  D5E5                  C D               D5E5                D Em    C5 D5
                            PM--------|                           PM|
  E E +Q    E E S S E   E E E E E E E E   E E +Q    E E E E   E E E E Q  Q
|---------------------|-----------------|-------------------|---------------|
|---------------------|-----------------|-------------------|---------------|
|-7-9-(9)\------------|-----------------|-7-9-(9)\----------|---------5--7--|
|-7-9-(9)\------------|-2s4-------------|-7-9-(9)\------4---|-4-5-----5--7--|
|---------------------|-3s5-------------|-------------------|-5-7-----3--5--|
|-------------0-5-5-3-|-----0-0-0-0-0-0-|-------------0---0-|-----0-0-------|


  D5E5                D Em              D5C5                EsCs4
                          PM--------|                           PM--------|
  E E +Q    E E E E   E E E E E E E E   E E +Q    E E E E   E E E E E E E E
|-------------------|-----------------|-------------------|-----------------|
|-------------------|-----------------|-------------------|-----------------|
|-7-9-(9)\----------|-----------------|-7-5-(5)\----------|-2---------------|
|-7-9-(9)\------4---|-4-5-------------|-7-5-(5)\------4---|-2-2-------------|
|-------------------|-5-7-------------|-------------------|---3-----------3-|
|-------------0---0-|-----0-0-0-0-0-0-|-------------0---0-|-----0-0-0-2-3---|


                                                                  To Coda
  D5E5                C D               D5E5                D E5    C5 D5
                          PM--------|                           PM|
  E E +Q    E E E E   E E E E E E E E   E E +Q    E E E E   E E E E Q  Q
|-------------------|-----------------|-------------------|---------------||
|-------------------|-----------------|-------------------|---------------||
|-7-9-(9)\------2-4-|-----------------|-7-9-(9)\----------|---------5--7--||
|-7-9-(9)\------4---|-2s4-------------|-7-9-(9)\------4---|-4-2-----5--7--||
|-------------------|-3s5-------------|-------------------|-5-2-----3--5--||
|-------------0-----|-----0-0-0-0-0-0-|-------------0---0-|-----0-0-------||


 Chorus
  C#sus2           B/C#                   C#sus2
  Q.   E E E E E   Q  E S S E S S E S S   Q.   E E E E E
|------4-4-------|----------------------|------4-4-------|
|----------4-----|-4--4-x-x-4-x-x-4-x-x-|----------4-----|
|-6----------6---|-4--4-x-x-4-x-x-4-x-x-|-6----------6---|
|-6------------6-|-4--4-x-x-4-x-x-4-x-x-|-6------------6-|
|-4--------------|-4--4-x-x-4-x-x-4-x-x-|-4--------------|
|----------------|----------------------|----------------|


  A                    C#sus2           B/C#
  Q.   E E S S E S S   Q.   E E E E E   Q  E S S E S S E S S
|--------------------|------4-4-------|-----------------------|
|-5----4-4-x-x-4-x-x-|----------4-----|-4--4-x-x-4-x-x-4-x-x--|
|-6----4-4-x-x-4-x-x-|-6----------6---|-4--4-x-x-4-x-x-4-x-x--|
|-7----7-7-x-x-7-x-x-|-6------------6-|-4--4-x-x-4-x-x-4-x-x--|
|-0------------------|-4--------------|-4--4-x-x-4-x-x-4-x-x--|
|--------------------|----------------|-----------------------|


  C#sus2           C#m  B    C#m      B      C#mB
  Q.   E E E E E   Q.   Q.   Q    +E  E +Q   Q  Q
|------4-4-------|--------------|------------------||
|----------4-----|-5----4----5--|-(5)-4-(4)--5--4--||
|-6----------6---|-6----4----6--|-(6)-4-(4)--6--4--||
|-6------------6-|-6----4----6--|-(6)-4-(4)--6--4--||
|-4--------------|--------------|------------------||
|----------------|--------------|------------------||


  Esus4     E                       Esus4     Em      C
  PM|   PM|   PM|                   PM|   PM|   PM|
  E E E E E E E E   Q.   S S H      E E E E E E E E   Q.   S S H
|-----------------|----------0----|-----------------|----------0----|
|-----------------|----------0----|-----------------|-1----0h1-1----|
|-----2-----1-----|-1----0h1------|-----2-----0-----|-0--------0----|
|-----2-----2-----|-2-------------|-----2-----2-----|-2-------------|
|-----------------|---------------|-----------------|-3-------------|
|-0-0---0-0---0-0-|---------------|-0-0---0-0---0-0-|---------------|


  Esus4     Em      D                               D5E5        D5
  PM|   PM|   PM|     PM------------------------|       PM----|   PM
  E E E E E E E E   E S S S S S S S S S S S S S S   E E E E E E E E
|-----------------|---5-5-----5-5-----------------|-----------------|
|-----------------|-3-----5-5-----3-3-------------|-----------------|
|-----2-----0-----|-2-----------------2-2---------|-7-9---------7---|
|-----2-----2-----|-0---------------------4-4-----|-7-9---------7---|
|-----------------|---------------------------5-5-|-5-7---------5---|
|-0-0---0-0---0-0-|-------------------------------|-----0-0-0-0---0-|


  D5E5      C5 D5      F                  G
      PM--|
  E E E S S Q  Q       Q.   Q.   Q    +E  Q.   Q  Q
|-------------------||-1----3----1--|-(1)-3----5--3--||
|------------------o||-1----1----1--|-(1)-3----3--3--||
|-7-9-------5--7\---||-2----2----2--|-(2)-4----4--4--||
|-7-9-------5--7\---||-3----3----3--|-(3)-5----5--5--||
|-5-7-------3--5\--o||--------------|----------------||
|-----0-0-0---------||--------------|----------------||


 Bridge
  N.C.(Ab)                          N.C.(Bb)
  PM--------------------------------------------------------------|
  S S S S S S S S S S S S S S S S   S S S S S S S S S S S S S S S S
|---------------------------------|----------------------------------|
|---------------------------------|----------------------------------|
|---------------------------------|----------------------------------|
|---------6-6-5-5-6-6-------------|---------8-8-----8-8--------------|
|-----6-6-------------6-6-----6-6-|-----8-8-------------8-8-----8-8--|
|-4-4---------------------4-4-----|-6-6---------6-6---------6-6------|


  N.C.(Fm)
  PM--------------------------------------------------------------|
  S S S S S S S S S S S S S S S S   S S S S S S S S S S S S S S S S
|---------------------------------|----------------------------------|
|---------------------------------|----------------------------------|
|---------------------------------|----------------------------------|
|---------3-3-5-5-3-3-----5-5-3-3-|-5-5-3-3-----5-5-3-3-----5-5-3-3--|
|-3-3-3-3-------------3-3---------|---------3-3---------3-3----------|
|---------------------------------|----------------------------------|


  N.C.(Ab)                          N.C.(Fm)
  PM--------------------------------------------------------------|
  S S S S S S S S S S S S S S S S   S S S S S S S S S S S S S S S S
|---------------------------------|----------------------------------|
|---------------------------------|----------------------------------|
|---------------------------------|----------------------------------|
|-5-5-6-6-----5-5-6-6-----5-5-6-6-|-5-5-3-3-----5-5-3-3-----5-5-3-3--|
|---------6-6---------6-6---------|---------3-3---------3-3----------|
|---------------------------------|----------------------------------|


  G5                G
  Gtr I
  PM------------|
                            |-3-|
  E E E E E E E E   E E E E Q Q Q
|-----------------|---------------||
|-----------------|---------------||
|-----------------|-4-4-4-4-4-4-4-||
|-5-5-5-5-5-5-5-5-|-5-5-5-5-5-5-5-||
|-5-5-5-5-5-5-5-5-|-5-5-5-5-5-5-5-||
|-3-3-3-3-3-3-3-3-|-3-3-3-3-3-3-3-||
|
| Gtr II
|                           |-3-|
| W                 H       Q Q Q
|-----------------|---------------||
|-----------------|---------------||
|-----------------|---------------||
|-----------------|-----------3-5-||
|-----------------|---------------||
|-----------------|-----------1-3-||


 Guitar Solo
  N.C.
  Gtr II
  Q.   Q.   E E    Q   +S  S  S  S  +Q.    S  S
|---------------|-------------------------------|
|---------------|-------------------------------|
|---------------|-------------------------------|
|-6----8----6-8s|=10--(10)-8s10-13-(13)---12s13-|
|---------------|-------------------------------|
|-4----6----4-6s|==8---(8)-6s=8-11-(11)---10s11-|


                 ~
                           |-3-|
   H.      Q     H    Q  E S S S
|--------------|-----------------|
|--------------|-----------------|
|--------------|-----------------|
|-12\------x\--|-5---------3-3h5-|
|----------x\--|-----------------|
|-10\----------|-----------------|


  |----6----|                                                         |-3-|
  S S S S S S S S S S S S S S S S S S   S S S S S S S S S S T T S S S S S S
|-------------------------------------|-----------------------------3-----3--|
|-------------------------------------|---3-----3-4---3-4-6-6p3-4-6---4h6----|
|-----3-------------3-5-3-----------3-|-5---3-5-----5------------------------|
|-6-6---6-6-5-3-5-6-------6-5-3-5-6---|--------------------------------------|
|-------------------------------------|--------------------------------------|
|-------------------------------------|--------------------------------------|


                                                      ~~~
                  |-3-|
  a    +Q   +e  e S S S E E E      +Q   +E  S    +S  +Q.   S S
|--------------------------------|-----------------------------|
|-6b8==(6)r=(6)-4-3h4p3---3------|-----------------------------|
|-----------------------5---5b7==|=(5)r=(5)-3b5==(3)r(3)---0-4-|
|--------------------------------|-----------------------------|
|--------------------------------|-----------------------------|
|--------------------------------|-----------------------------|


                                                |-3-| |-3-| |-3-|
  S    +S  +E  E S S S S S S E E   S    +S  +E  E E E E E E E E E
|--------------------------------|--------------------------------|
|--------------------------------|--------------------------------|
|-4b5==(4)r(4)-0-----------------|--------------------------------|
|----------------1h3-5p0-1p0-----|--------------------------------|
|----------------------------3---|--------------------3-----5-3-2-|
|------------------------------3-|-4b5==(4)r(4)-3-4-6---6-4-------|


  |-3-| |-3-| |-3-| |-3-|   |-3-| |-3-|
  E E E E E E E E E E E E   E E E E E E H
|-------------------------|-----------6-3tr4----|
|-------------------------|---3---4-6-----------|
|-------------------3---5-|-3---5---------------|
|-------3---5-3-6-5---6---|---------------------|
|-6-5-6---6---------------|---------------------|
|-------------------------|---------------------|


   |------6-------|  |------6-------|  |------6-------|  |------6-------|
   S  S  S  S  S  S  S  S  S  S  S  S  S  S  S  S  S  S  S  S  S  S  S  S
|-------------------------------------------------------------------------|
|----------------------------------------------------------------------11-|
|----------------------------10-------------10-------10-12-13-10-12-13----|
|----------10-------10-12-13----12-13-12-13----12-13----------------------|
|-10-11-13----11-13-------------------------------------------------------|
|-------------------------------------------------------------------------|


         |--3--|        |--3--|  |------6-------|  |--3--|
   S  S  S  S  S  S  S  S  S  S  S  S  S  S  S  S  S  S  S  T  T  T  T
|----------------------------------------15-15-------15-16----15-16-18-|
|-11----------13-15----13-15-16-15-16-18-------16-18-------18----------|
|----12-13s15-------15-------------------------------------------------|
|----------------------------------------------------------------------|
|----------------------------------------------------------------------|
|----------------------------------------------------------------------|


   |------6-------|  |------6-------|  |------6-------|  |------6-------|
   S  S  S  S  S  S  S  S  S  S  S  S  S  S  S  S  S  S  S  S  S  S  S  S
|-20-20-20-20-18-16-15-------15-15-15-22-22-22-22-20-18-16----------18-22-|
|----------------------18-16-------------------------------20-18-20-------|
|-------------------------------------------------------------------------|
|-------------------------------------------------------------------------|
|-------------------------------------------------------------------------|
|-------------------------------------------------------------------------|


   a      +Q.    S      +S    E  Q.
|-22b23==(22)r==22b25==(22)r-22-22\----||
|--------------------------------------||
|--------------------------------------||
|--------------------------------------||
|--------------------------------------||
|--------------------------------------||


     A    E                      A    Em     C
  Gtr I
  Q  Q.   Q.     W          +Q   Q.   Q.     W
|----0----0----|-0--------|-(0)--0----0----|-0----|
|----2----0----|-0--------|-(0)--2----0----|-1----|
|----2----1----|-1--------|-(1)--2----0----|-0----|
|----2----2----|-2--------|-(2)--2----2----|-2----|
|----0----2----|-2--------|-(2)--0----2----|-3----|
|--------------|-0--------|-(0)------------|------|


                                                 D.S. al Coda
       A    Em     D5         E5                        C5 D5
  +Q   Q.   Q.     W          E E E E E E E E   E E E E Q  Q
|-(0)--0----0----|----------|-----------------|---------------||
|-(1)--2----0----|-3--------|-----------------|---------------||
|-(0)--2----0----|-2--------|-----------------|---------5--7--||
|-(2)--2----2----|-0--------|-----------------|-9-9-9-9-5--7--||
|-(3)--0----2----|----------|-----------------|-7-7-7-7-3--5--||
|----------------|----------|-0-0-0-0-0-0-0-0-|-0-0-0-0-------||


 Outro
  &
  Esus4     E                       Esus4     Em      C
  PM|   PM|   PM|                   PM|   PM|   PM|
  E E E E E E E E   Q.   S S H      E E E E E E E E   Q.   S S H
|-----------------|----------0----|-----------------|----------0----|
|-----------------|----------0----|-----------------|-1----0h1-1----|
|-----2-----1-----|-1----0h1------|-----2-----0-----|-0--------0----|
|-----2-----2-----|-2-------------|-----2-----2-----|-2-------------|
|-----------------|---------------|-----------------|-3-------------|
|-0-0---0-0---0-0-|---------------|-0-0---0-0---0-0-|---------------|


  Esus4     Em      D                 D5E5        D5      E5      C5 D5
  PM|   PM|   PM|     PM----------|       PM----|   PM      PM--|
  E E E E E E E E   E E E E E E E E   E E E E E E E E   E E E S S Q  Q
|-----------------|---5---5---------|-----------------|-----------------|
|-----------------|-3---5---3-------|-----------------|-----------------|
|-----2-----0-----|-2---------2-----|-7-9---------7---|-7-9-------5--7--|
|-----2-----2-----|-0-----------4---|-7-9---------7---|-7-9-------5--7--|
|-----------------|---------------5-|-5-7---------5---|-5-7-------3--5--|
|-0-0---0-0---0-0-|-----------------|-----0-0-0-0---0-|-----0-0-0-------|


  Esus4     E                       Esus4     Em      C
  PM|   PM|   PM|                   PM|   PM|   PM|
  E E E E E E E E   Q.   S S H      E E E E E E E E   Q.   S S H
|-----------------|----------0----|-----------------|----------0----|
|-----------------|----------0----|-----------------|-1----0h1-1----|
|-----2-----1-----|-1----0h1------|-----2-----0-----|-0--------0----|
|-----2-----2-----|-2-------------|-----2-----2-----|-2-------------|
|-----------------|---------------|-----------------|-3-------------|
|-0-0---0-0---0-0-|---------------|-0-0---0-0---0-0-|---------------|


  Esus4     Em      D
  PM|   PM|   PM|     PM------------------------|
  E E E E E E E E   E S S S S S S S S S S S S S S
|-----------------|---5-5-----5-5-----------------|
|-----------------|-3-----5-5-----3-3-------------|
|-----2-----0-----|-2-----------------2-2---------|
|-----2-----2-----|-0---------------------4-4-----|
|-----------------|---------------------------5-5-|
|-0-0---0-0---0-0-|-------------------------------|


  D5E5        D5      E5      C5 D5
      PM----|   PM      PM--|
  E E E E E E E E   E E E S S Q  Q
|-----------------|------------------||
|-----------------|------------------||
|-7-9---------7---|-7-9-------5--7---||
|-7-9---------7---|-7-9-------5--7---||
|-5-7---------5---|-5-7-------3--5---||
|-----0-0-0-0---0-|-----0-0-0--------||


 Outro Solo
  Esus4         E
  Gtr II
                             ~~~~~
  Q    Q.        Q.          W
|-----12--------12--------|-12---------------|
|-----15b17-----15b17-----|-15b17------------|
|-------------------------|------------------|
|-------------------------|------------------|
|-------------------------|------------------|
|-------------------------|------------------|
|
| Gtr I
| PM|       PM|       PM|
| E E  E    E E  E    E E    Q.     S S H
|-------------------------|-------------0----|
|-------------------------|-------------0----|
|------2---------1--------|--1------0h1------|
|------2---------2--------|--2---------------|
|-------------------------|------------------|
|-0-0-------0-0-------0-0-|------------------|


         Esus4            Em      C
                        ~~
                                   |--3---|
   a      +Q.      +E   H          Q   Q  Q      H
|-------------------------------|-------------------------|
|-15b17==(15)r====(15)-15-------|-12--13-15-----13tr15----|
|-------------------------------|-------------------------|
|-------------------------------|-------------------------|
|-------------------------------|-------------------------|
|-------------------------------|-------------------------|
|
|          PM-|     PM-|    PM|
|          E  E E   E   E E E E    Q.       S S  H
|-------------------------------|----------------0--------|
|-------------------------------|--1--------0h1--1--------|
|---------------2---------0-----|--0-------------0--------|
|---------------2---------2-----|--2----------------------|
|-------------------------------|--3----------------------|
|----------0--0-----0---0---0-0-|-------------------------|


  Esus4          Em         D
   E  E  E  E  E  E  E  E    E E Q   +E   E E E
|-------------------------|---------------------|
|-12-13-12----12----------|---------------------|
|----------14----14-12s11-|---------------------|
|-------------------------|-12-9-9---(9)----9-9-|
|-------------------------|--------------12-----|
|-------------------------|---------------------|
|
|  PM|      PM|      PM|       PM-------------|
|  E  E  E  E  E  E  E  E    E E E E  E   E E E
|-------------------------|----5---5------------|
|-------------------------|--3---5----3---------|
|--------2--------0-------|--2------------2-----|
|--------2--------2-------|--0--------------4---|
|-------------------------|-------------------5-|
|--0--0-----0--0-----0--0-|---------------------|


  D5     E5                        D5
  |-3--|          |-3--|    |-3--|
  S  S S  S S  E  S  S S E  S  S S  E E
|---------------------------------------|
|---------------------------------------|
|------------------------9------------9-|
|-9h10p9----9-12-------9---------9-12---|
|--------12------10h12-----10h12--------|
|---------------------------------------|
|
|              PM----------|          PM
| E       E    E  E      E  E       E E
|---------------------------------------|
|---------------------------------------|
|-7-------9-------------------------7---|
|-7-------9-------------------------7---|
|-5-------7-------------------------5---|
|--------------0--0------0--0---------0-|


  D5 E5              C5   D5
      |--3--|
   E  S  S  S  E E   E  E  E  S  S
|----------------------------------|
|----------------------------------|
|-12-11h12p11-11-------------11-13-|
|----------------9---9s12-12-------|
|----------------------------------|
|----------------------------------|
|
|              PM--|
|  E  E        E S S Q     Q
|----------------------------------|
|----------------------------------|
|--7--9--------------5-----7-------|
|--7--9--------------5-----7-------|
|--5--7--------------3-----5-------|
|--------------0-0-0---------------|


  Esus4                                       E
   S      +S    S  S  S  S  S  S  S      +S    S  S  S      +S    S  S
|-----------------12----12-----------------------12-----------------12-|
|--------------12----12----12-12--------------12-----------------12----|
|-14b16==(14)r-------------------14b16==(14)r-------14b16==(14)r-------|
|----------------------------------------------------------------------|
|----------------------------------------------------------------------|
|----------------------------------------------------------------------|
|
|  PM----------|            PM---|                   PM----------|
|  E            E     E     E     E            E     E            E
|----------------------------------------------------------------------|
|----------------------------------------------------------------------|
|---------------------2------------------------1-----------------------|
|---------------------2------------------------2-----------------------|
|----------------------------------------------------------------------|
|--0------------0-----------0-----0------------------0------------0----|


                                                     Esus4             Em
                                                ~~
                                                                           |---3---|
   S      +S    S  S  S     +S   S  S  S  S  E  Q    E  Q.         +E   E  E  E    E
|-----------------12-------------------------------|---------------------------------|
|--------------12---------------------14----12-----|---------------------------------|
|-14b16==(14)r-------14b16r(14)p12----14----12-----|---16b19======(16)-16-16-16---16-|
|----------------------------------14----14----14--|---------------------------------|
|--------------------------------------------------|-0-------------------------------|
|--------------------------------------------------|---------------------------------|
|
|                                                    PM|        PM|        PM---|
|  Q.                            S  S  H             E  E     E E   E   E  E    E
|--------------------------------------0-----------|---------------------------------|
|--------------------------------------0-----------|---------------------------------|
|--1-----------------------------0h=1--------------|----------2---------0------------|
|--2-----------------------------------------------|----------2---------2------------|
|--------------------------------------------------|---------------------------------|
|--------------------------------------------------|-0--0-------0---0------0----0----|


  C                  Esus4               Em
              ~~
   Q.   +E    H       +E   E   H            +E   +E
|------------------|----------------------------------|
|------------------|----------15b19========(15)r(15)--|
|-16r==(16)--16----|-(16)-16\-------------------------|
|------------------|----------------------------------|
|------------------|----------------------------------|
|------------------|----------------------------------|
|
|                      PM-|          PM|     PM-|
|  Q.    S S  H        E   E   E     E E E   E    E
|-------------0----|----------------------------------|
|--1-----0h1--1----|----------------------------------|
|--0----------0----|-----------2---------0------------|
|--2---------------|-----------2---------2------------|
|--3---------------|----------------------------------|
|------------------|---0---0---------0-0-----0----0---|


  D                                               D5 E5               D5
                                                         ~~
   +Q.          E    E       +E     E    E      a  E  E  Q    E  S  S  S  S  S  S
|-------------------16b17r==(16)-------------|------------------------------------|
|-(15)-----------------------------17--------|------------------------------------|
|--------------14-----------------------16---|-16s14-13---------------------------|
|--------------------------------------------|----------14---14-------12----14----|
|--------------------------------------------|------------------14-14----14----14-|
|--------------------------------------------|------------------------------------|
|
|      PM----------------------------------|             PM-----|            PM
|   E  S S S S  S S  S    S   S  S  S S  S S       E  E  E E  E  E     E     E
|------5-5------5-5--------------------------|------------------------------------|
|---3------5-5-------3----3------------------|------------------------------------|
|---2-------------------------2--2-----------|-----7--9----------------7----------|
|---0-------------------------------4-4------|-----7--9----------------7----------|
|----------------------------------------5-5-|-----5--7----------------5----------|
|--------------------------------------------|-----------0-0--0--0-----------0----|


        E5                   C5       D5
               |--3--|        |--3--|  |--3--|
   S  S  S  S  S  S  S  S  S  E  E  E  E  E  E
|----------------------------------------------*|
|----------------------------------------------*|
|-------13-14-13h14p13----13----13-14-13-14-13-*|
|-12-14----------------14----14----------------*|
|----------------------------------------------*|
|----------------------------------------------*|
|
|              PM---------|
|  E     E     E        S  S  Q        Q
|----------------------------------------------*|
|----------------------------------------------*|
|--7-----9--------------------5--------7-------*|
|--7-----9--------------------5--------7-------*|
|--5-----7--------------------3--------5-------*|
|--------------0--------0--0-------------------*|





Comments


Popular Ozzy Osbourne tabs & chords
Crazy Train 2 Bass Tabs
Gets Me Thru Bass Tabs
Black Illusion Tabs
Dee 3 Tabs
Dreamer 12 Tabs
Mr. Crowley 2 Tabs
Mr. Tinkertrain Tabs
No Bone Movies Tabs
Running Out Of Time Ukulele
Shot In The Dark Ukulele


Song lyrics



↑ Back to top | Tablatures and chords are parodies/interpretations of the original songs. You may use it for private study, scholarship, research or language learning purposes only
© 2014 AZChords.com Contact us | Privacy policy | DMCA | Add/correct tabs | Request tabs | Top 50 tabs