>
 >
Denial

Denial Guitar Tabs

Ozzy Osbourne - Denial chords, tabs, tablatures, lyrics

Guitar lessons | Add/correct | Request | Top 50 tabs Artists:  A B C D E F G H I J K L M N O P Q R S T U V W X Y Z 0-9

Denial Guitar Tabs – Ozzy Osbourne

CD, Sheet music, Poster

Do you like Denial? Share with your friends now
Tabs
Ozzy - Ozzmosis


|-----------------|------------------|-----------------|-----------------|
|-----------------|------------------|-----------------|-----------------|
|-----0-------0---|-----0-------3^---|-----0-------0---|-----0-----0---0-|
|---2---2---2---2-|---2---2---1----3-|---2---2---2---2-|---2---2---------|
|-3-------1-------|-0-------0--------|-3-------1-------|-0---------------|
|-----------------|------------------|-----------------|---------3---1~--|

VERSE:
|-------------------|-------------------|
|-------------------|-------------------|
|-----0---------0---|-------0---------0-|
|-------2-----2---2-|-----2-----5-4-5---|
|---2-----2/3-------|-3/4-----4-3-3-3---|
|-0-----------------|-------------------|

"I will tell you im okay, but deep inside.."
|-------------------------|-------------0---------------|
|-0------0--------0-------|------0--------0-----0-------|
|-0---------0-------0-----|----3---3--------3-----3-----|
|-2-----------2-------2---|----------4--------------4---|1st time - back to start
|-3-------------3-------3-|-3-----------------3---------|2nd time, go to chorus
|-------------------------|-----------------------------|

CHORUS: "You're in denial..."
|-----PH======----=================-|-----============================|
|-----8-7----------8-7-----8-7------|-----8-7-------------------------|
|---------5~~----------5~~-----5~~--|---------4~-4-5-4h5p4-4----------|
|-----------------------------------|---------------------7-5-7-4-5---|
|-7-7----------7-7------------------|-2-2---------------------------7-|
|-5-5----------5-5------------------|-0-0-----------------------------|repeat

|-----------------|--------------------------|
|-----------------|--------------------------|
|-----0-------0---|-----0--------------------|
|---2---2---2---2-|---2---2------------------|
|-3-------3-------|-1-------0----------------|
|-----------------|-----------------3---2----|

INTERLUDE:
|---------5-5-----3-3-----2-2-----0-0-|-----0-0----0-0-----0-0-----0-0---|
|---------5-5-----5-5-----5-5-----5-5-|-----0-0----2-2-----3-3-----5-5---|
|-------------------------------------|----------------------------------|
|-------------------------------------|----------------------------------|
|-----0-0-----0-0-----0-0-----0-0-----|----------------------------------|
|-5p3---------------------------------|-0-0-----0-0----0-0-----0-0-------|

SOLO:
|-----------------------------|-----------------------------|
|-8p0-8~-7p0-7~-5p0-5~-3p0-3~-|-4p0-4~-3p0-3~----trill------|
|-----------------------------|---------------02020202020---|
|-----------------------------|---------------------------2/|repeat
|-----------------------------|-----------------------------|
|-----------------------------|-----------------------------|

|--------12-14-14^---^(14)-12-|----------------------------------------------------|
|-15^~~-----------------------|15^-^p12-15^-^p12-15^-^p12-15^-^p12-----------------|
|-----------------------------|------------------------------------14^-^(14)p12----|
|-----------------------------|-------------------------------------------------14-|
|-----------------------------|----------------------------------------------------|
|-----------------------------|----------------------------------------------------|

|----------12-14-14^------^(14)-|---------------------------|
|-15^~~~~-----------------------|---------------------------|
|-------------------------------|-2^-^-^-^-^-^-2-2-2-2p0----|
|-------------------------------|------------------------2-/|
|-------------------------------|---------------------------|
|-------------------------------|---------------------------|

|------81012-----81012--------------------------------------|
|-81012-----81012-------------------------------------------|
|------------------------*-/---*-/-----*-/------------------|
|-------------------------/-----/-------/-------------------|
|------------------------/--*--/--*----/--*-----------------|
|-----------------------------------------------------------|

|-141517-141517-121415-121415-101214-101214-81012-81012------
|------------------------------------------------------------
|------------------------------------------------------------
|------------------------------------------------------------
|------------------------------------------------------------
|------------------------------------------------------------

---------------------------------------------------|
-121315-121315-101213-101213-81012-81012-7810-7810-|
---------------------------------------------------|
---------------------------------------------------|
---------------------------------------------------|
---------------------------------------------------|

|------81012-----81012------------------------|
|-81012-----81012-----------------------------|
|------------------------*-/---*-/-----*-/----|
|-------------------------/-----/-------/-----|
|------------------------/--*--/--*----/--*---|
|---------------------------------------------|

|--------------------------------------------------15\------|
|-12~~~~~~----10--------8-------7------------------x--\-----|
|-------------------------------------/7~~~~~~~~~~-----\----|
|-------------------------------------------------------\---|
|--------------------------------------------------------\--|
|---------------------------------------------------------\-|end of solo





Comments


Popular Ozzy Osbourne tabs & chords
Suicide Solution Bass Tabs
Goodbye To Romance Chords
Mama Im Coming Home 1 Chords
Budokan Tabs
Gets Me Through Live Intro Tabs
Killer Of Giants Tabs
Killer Of Giants 1 Tabs
Trap Door Intro Tabs
You Can't Kill Rock And Roll Tabs
Old La Tonight Ukulele


Song lyrics



↑ Back to top | Tablatures and chords are parodies/interpretations of the original songs. You may use it for private study, scholarship, research or language learning purposes only
© 2014 AZChords.com Contact us | Privacy policy | DMCA | Add/correct tabs | Request tabs | Top 50 tabs