>
 >
Crzy Train

Crzy Train Guitar Tabs

Ozzy Osbourne - Crzy Train chords, tabs, tablatures, lyrics

Guitar lessons | Add/correct | Request | Top 50 tabs Artists:  A B C D E F G H I J K L M N O P Q R S T U V W X Y Z 0-9

Crzy Train Guitar Tabs – Ozzy Osbourne

CD, Sheet music, Poster

Do you like Crzy Train? Share with your friends now
Tabs


Nat. Harmonic   (7)
Let Ring         7~~
Tapped note      T

Intro
|---------------------------------|
|---------------------------------|
|---------------------------------|
|---------------------------------|
|-----4---5---4---2-0---0-2-0-----|
|-2-2---2---2---2-----4-------4-0-|

|-------------------------|
|-------------------------|
|-----------------7~~-9~~-|
|-----------------7~~-9~~-|
|-----4---5---4---5~~-7~~-|
|-2-2---2---2---2---------|

Verse(main)                            (fill)
|----------------------------------------------|-------------------|
|--------2---------5---------3---------2-------|-------------------|
|--------2---------6---------4---------2-----2-|-4p2p0-------------|
|--------2---------4---------2---------2-----2-|-------4p2p0-------|
|-0--0-0---0-0-0-0---0-0-0-0---0-0-0-0-------0-|-------------4p2p0-|
|----------------------------------------3^b---|-------------------|

Chorus          
|---------------------------------------------------------|---------------|
|---------------------------------------------------------|-Play Fills 1,-|
|------------7----(7)-------------7--(7)------2-----------|-2, and 3,-----|
|-4---4--4---7--(7)----4---4--4---7----(7)----2-----2-----|--Here---------|
|-4---4--4---5---------4---4--4---5-------4-2-0-----2-----|---------------|
|-2-0-2--2-0-----------2-0-2--2-0---------------4-2-0-2-4-|---------------|

Fill 1
|------2-----------------------------------------------------|
|----2---5p2-3p2---2-----------------------------------------|
|-4b-------------5---5p2-4p2---------------------------------|
|----------------------------4p2-----------------------------|
|--------------------------------4p3p2h3p2---3p2h3p2h3p2-----|
|------------------------------------------5-------------5-2-|

Fill 2
|-----------------------------------------------------------------------------------|
|-----10-13p10---14p11----15p12----16p13----17p14----18p15----19p16----20p17--------|
|-/11----------11------12-------13-------14-------15-------16-------17-------18-----|
|-----------------------------------------------------------------------------------|
|-----------------------------------------------------------------------------------|
|-------------------------------------------------------------------------------20\-|

Fill 3
|----------------------------------16-----------17-----------18---------------|
|--------14-17^14-----15-18p15--------19^16--------20^17--------21^18-21^b~~~-|
|-16-16b----------17b----------18b----------19b----------20b------------------|
|-----------------------------------------------------------------------------|
|-----------------------------------------------------------------------------|
|-----------------------------------------------------------------------------|

Part After Fills
|---------------------------------------------------------|
|---------------------------------------------------------|
|-2-2-2~~-----------------------2---------------------7-9-|
|-2-2-2~~-----2~~-4-6-4---4-4-6-2-----2-4-6-4---4-4-6-7-9-|
|-0-0-0~~-----2~~-4-6-4---4-4-6-0-----2-4-6-4---4-4-6-5-7-|
|---------4-2-0~~-2-4-2-0-2-2-4---4-2-0-2-4-2-0-2-2-4-----|

Interlude
|-----------------|-------------|-----|
|-----------------|-------------|-----|
|-----------------|-7-7-9-9-----|-7-9-|
|-4-4-7-7-2-2-4-4-|-7-7-9-9-4-4-|-7-9-|
|-4-4-7-7-2-2-4-4-|-5-5-7-7-4-4-|-5-7-|
|-2-2-5-5-0-0-2-2-|---------2-2-|-----|

Solo(definitely not right in some parts, but Randy Rhoads was a god and i'm not)
  T          T          T          T          T          T          T          T
|-----------------------------------------------------------------------------------------|
|-14-10p7h10-14-10p7h10-14-10p7h10-14-10p7h10-14-10p7h10-15-10p7h10-15-10p7h10-15-10p7h10-|
|-----------------------------------------------------------------------------------------|
|-----------------------------------------------------------------------------------------|
|-----------------------------------------------------------------------------------------|
|-----------------------------------------------------------------------------------------|

|----------------------------------------------------------17-16-14-----14-16-17b-|
|-12p9h12p9h12p9h12p9\10p7h10p7h10/12p9h12p9h12----10---------------17b-----------|
|-----------------------------------------------9b----9b--------------------------|
|---------------------------------------------------------------------------------|
|---------------------------------------------------------------------------------|
|---------------------------------------------------------------------------------|
       hammer on while sliding down then back up

|-14-17p14----------------------------------------------|
|----------17-14-14h15p14h15p14-----17------------14-17-|
|-------------------------------16b----16b--14-16-------|
|-------------------------------------------------------|
|-------------------------------------------------------|
|-------------------------------------------------------|
					                	
|-17p14h17p14-19p16h19p16-21p17h21p17-19p16h19p16-17p14h17p14-----17-----|
|-------------------------------------------------------------17b----17b-|
|------------------------------------------------------------------------|
|------------------------------------------------------------------------|
|------------------------------------------------------------------------|
|------------------------------------------------------------------------|
  Listen to the song 
  to get the amounts 
  on this part	

|-------------------------------------------------------------------------------|
|-17-14-------------------------------------------------------------------------|
|-------16-14----14-------14-------14-------14-------13h14p13h14p13h14p13h14h16-|
|-------------16----16p14----16p14----16p14----16p14----------------------------|
|-------------------------------------------------------------------------------|
|-------------------------------------------------------------------------------|

|-------------------------14-17p16p14-19p17-19p17-19b-19b-|
|----------------------17---------------------------------|
|-------------14h16\18------------------------------------|
|-------14h16---------------------------------------------|
|-14h16---------------------------------------------------|
|---------------------------------------------------------|





Comments


Popular Ozzy Osbourne tabs & chords
Back On Earth Chords
Dreamer 7 Tabs
I Dont Wanna Stop Intro Tabs
Iron Man 2 Tabs
Mississippi Queen Tabs
No Bone Movies Tabs
Perry Mason 1 Tabs
Road To Nowhere Tabs
Thank God For The Bomb Tabs
Tomorrow Tabs


Song lyrics



↑ Back to top | Tablatures and chords are parodies/interpretations of the original songs. You may use it for private study, scholarship, research or language learning purposes only
© 2014 AZChords.com Contact us | Privacy policy | DMCA | Add/correct tabs | Request tabs | Top 50 tabs