>
 >
Centre Of Eternity

Centre Of Eternity Guitar Tabs

Ozzy Osbourne - Centre Of Eternity chords, tabs, tablatures, lyrics

Guitar lessons | Add/correct | Request | Top 50 tabs Artists:  A B C D E F G H I J K L M N O P Q R S T U V W X Y Z 0-9

Centre Of Eternity Guitar Tabs – Ozzy Osbourne

CD, Sheet music, Poster

Do you like Centre Of Eternity? Share with your friends now
Bass TabsTabs
-------------------------------------------------------------------------------
-------------------------------------------------------------------------------

Here it is felow jake fans in its entirety.
Palm mute the open string hitting in the main riff.
And chorus.
basically whenever there is a open a string PM it.
This took me ages but if one person learns it 
my goal is achieved.
Tuning:Standard

Organ Intro:


Main Riff
e|---------------------------------------------------------------------------|
B|---------------------------------------------------------------------------|
G|-----5------7------7/8-----7---5-------------------------------------------|
D|-----5------7------7/8-----7---5-------------------------------------------|X2
A|---00-00000--00000----00000--00--000---------------------------------------|
E|---------------------------------------------------------------------------|


e|---------------------------------------------------------------------------|
B|---------------------------------------------------------------------------|
G|------------0h5h7----------------------------------------------------------|
D|------0h5h7------0h5h7-----------------------------------------------------|
A|-0h5h7---------------------------------------------------------------------|
E|---------------------------------------------------------------------------|


To main riff X2


e|---------------------------------------------------------------------------|
B|---------------------------------------------------------------------------|
G|-7p5p0---------------------------------------------------------------------|
D|-------7p5p0---------------------------------------------------------------|
A|-------------5p3p0---------------------------------------------------------|
E|---------------------------------------------------------------------------|

Bridge

e|---------------------------------------------------------------------------|
B|-------------3-------------3-------------------------3---------------------|
G|--5----------0----2-2-2----0-------------------------0---------------------|
D|--5----------0----2-2-2----0-----3--33----------3----0---------------------|
A|--3---------------0-0-0----------3--33--333-333-3--------------------------|
E|-------------3-------------3-----1--11-01110111-1----3---------------------|

Chorus
     
 Guitar just hits the A the rest is keyboard arranged for guitar. 
e|---------------------------------------------------------------------------|
B|---------------------------------------------------------------------------|
G|-5--4--7--------------------5-----7-----7/8--7--5-------2------------------|
D|-5--2--5--4--4----4-2-0-----5-----7-----7/8--7--5-------2------------------|X2
A|-3------------------------00-00000-00000---00-00-00000--0------------------|
E|---------------------------------------------------------------------------|


e|---------------------------------------------------------------------------|
B|---------------------------------------------------------------------------|
G|--7b-5---------------------------------------------------------------------|
D|-------7-5-----------------------------------------------------------------|
A|-----------7-6-5-3---------------------------------------------------------|
E|---------------------------------------------------------------------------|

Main Riff X2
Chorus x2


e|---------------------------------------------------------------------------|
B|---------------------------------------------------------------------------|
G|-2-0-----------------------------------------------------------------------|
D|-----2-0-------------------------------------------------------------------|
A|---------2-1-0-------------------------------------------------------------|
E|---------------3-----------------------------------------------------------|

Before Solo(Interlude)

e|-----------------------------------------0----------------|----------------|
B|-----------------------------------3---3------------------|--5-------------|
G|--------------9--12/-----------5-----2-------------9---12-|---5-----5------|
D|--------------9--12/-----------5-------------------9---12-|-----7--7-------|
A|--------------7--10/-----------3-------------------7---10-|------7---------|
E|---0-0---0-0----0----0-0---0-0----0-------0-0--0-0---0----|----------------|

Do interlude again but change that little Fill ending to

e|-5-------------------------------------------------------------------------|
B|---5---5-5---5-------------------------------------------------------------|
G|-----7-----7---7-----------------------------------------------------------|
D|---------------------------------------------------------------------------|
A|---------------------------------------------------------------------------|
E|---------------------------------------------------------------------------|

e|---------------------------------------------------------------------------|
B|---------------------------------------------------------------------------|
G|--5-------4-------2--------4------5-------4------5-------------------------|
D|--5-------4-------2--------4------5-------4------5-------------------------|
A|--3-------2-------0--------2------3-------2------3-------------------------|
E|---------------------------------------------------------------------------|

e|---------------------------------------------------------------------------|
B|---------------------------------------------------------------------------|
G|--2-x--2-x--2-x--2p-0-0-2--2-4-------5------7------2-----4-----5-----7-----|
D|--2-x--2-x--2-x------------2-4-------5------7------2-----4-----5-----7-----|
A|--0-x--0-x--0-x------------0-2-------3------5------0-----2-----3-----5-----|
E|---------------------------------------------------------------------------|
  

Solo:

e|-------------------------------------------12--------------------14--------|
B|-------------------------------------5-8------12------15--15p14----14-12---|
G|-------------------------------4-6-7--------------------14-----------------|
D|------------------4-6---4--8-7---------------------------------------------|
A|------4-5-4-4-5-7-----7----------------------------------------------------|
E|--5-7----------------------------------------------------------------------|

e|----12----11-15b~--15b-14-12h14p12-------14-------7h9p7-----9--------------|
B|-------14--------------------------15/14---14--14------10-7--10------------|
G|-14------------------------------------------14----------------9-6-7b-6----|
D|---------------------------------------------------------------------------|
A|---------------------------------------------------------------------------|
E|---------------------------------------------------------------------------|


e|-------------------------------------------10-12-10--10--------------------|
B|-6b~-4-6---------7h10p7-12b~ 12~~-10-12-13---------13--12b-10----10--------|
G|--------6/7-7/9-----------------------------------------------12---12-10-9-|
D|---------------------------------------------------------------------------|
A|---------------------------------------------------------------------------|
E|---------------------------------------------------------------------------|

e|---------------------------------------------------------------------------|
B|------------------------------------7p4------------------------------------|
G|-12p9---9----------------4p2--5p2-3-----9p5--10p7-12p9-14p10---16p12-------|
D|------10--12--3p2-5p2-2-----3--------------7-----9----------12------14-----|
A|-----------------5---3-3---------------------------------------------------|
E|---------------------------------------------------------------------------|

                TP-------------------------------------------------------
e|----------------13-13-13-13-15-15-15-15-11-11-11-11-10-10-10-10-8-8-8-8----|
B|---------------------------------------------------------------------------|
G|-17p14--19p16--------------------------------------------------------------|
D|------15-----17------------------------------------------------------------|
A|---------------------------------------------------------------------------|
E|---------------------------------------------------------------------------|

   -------------------------------------------------------------------------
e|-15-15-15-15-11-11-11-11-10-10-10-10-13-13-13-13-15-15-15-15-11-11-11-11---|
B|---------------------------------------------------------------------------|
G|---------------------------------------------------------------------------|
D|---------------------------------------------------------------------------|
A|---------------------------------------------------------------------------|
E|---------------------------------------------------------------------------|

   ------------------------------------------------------
e|-10-10-10-10-8-8-8-8-15-15-15-15-11-11-11-11-10-10-10-10-11p10h11 13p11h13-|
B|---------------------------------------------------------------------------|
G|---------------------------------------------------------------------------|
D|---------------------------------------------------------------------------|
A|---------------------------------------------------------------------------|
E|---------------------------------------------------------------------------|


e|-15p13h15--16p15-10-18b-16p15----18p15-------------------------------------|
B|------------------------------16-------16----------------------------------|
G|-----------------------------------------17--12-13-15b-13-12-15---13-15-17-|
D|-------------------------------------------15-------------------15---------|
A|---------------------------------------------------------------------------|
E|---------------------------------------------------------------------------|


e|----------15----15-20b~~~~~~~~~~~~~~~~~~~~~~~~~~~~~~-----------------------|
B|-15-16-18----14------------------------------------------------------------|
G|---------------------------------------------------------------------------|
D|---------------------------------------------------------------------------|
A|---------------------------------------------------------------------------|
E|---------------------------------------------------------------------------|

Main Riff
e|---------------------------------------------------------------------------|
B|---------------------------------------------------------------------------|
G|-----5------7------7/8-----7---5-------------------------------------------|
D|-----5------7------7/8-----7---5-------------------------------------------|X2
A|---00-00000--00000----00000--00--000---------------------------------------|
E|---------------------------------------------------------------------------|


e|---------------------------------------------------------------------------|
B|---------------------------------------------------------------------------|
G|---7p5p0------7p5p0--------------------------------------------------------|
D|---------7p5p0-----7p5p0---------------------------------------------------|
A|---------------------------------------------------------------------------|
E|---------------------------------------------------------------------------|

Main Riff X2

e|---------------------------------------------------------------------------|
B|---------------------------------------------------------------------------|
G|---5p0-07p4p0--------------------------------------------------------------|
D|-------------5-0-----------------------------------------------------------|
A|-----------------2---------------------------------------------------------|
E|-------------------3-------------------------------------------------------|


e|---------------------------------------------------------------------------|
B|---------------------------------------------------------------------------|
G|-12~~----------------------------------------------------------------------|
D|-12~~----------------------------------------------------------------------|
A|------12/------------------------------------------------------------------|
E|---------------------------------------------------------------------------|

Main Riff
e|---------------------------------------------------------------------------|
B|---------------------------------------------------------------------------|
G|-----5------7------7/8-----7---5-------------------------------------------|
D|-----5------7------7/8-----7---5-------------------------------------------|X2
A|---00-00000--00000----00000--00--000---------------------------------------|
E|---------------------------------------------------------------------------|

e|------5--------------------------------------------------------------------|
B|---------------------------------------------------------------------------|
G|--7h8---8p7p5-7p5---5------------------------------------------------------|
D|------------------7---7p5--------------------------------------------------|
A|---------------------------------------------------------------------------|
E|---------------------------------------------------------------------------|


e|---------------------------------------------------------------------------|
B|---------------------------------------------------------------------------|
G|--12p7-12-5-12-5-12-5-7-12-5-12-5-12-7-12-5-12-5-4-------------------------|
D|---------------------------------------------------------------------------|
A|---------------------------------------------------------------------------|
E|---------------------------------------------------------------------------|

Bridge

e|---------------------------------------------------------------------------|
B|-------------3-------------3-------------------------3---------------------|
G|--5----------0----2-2-2----0-------------------------0---------------------|
D|--5----------0----2-2-2----0-----3--33----------3----0---------------------|
A|--3---------------0-0-0----------3--33--333-333-3--------------------------|
E|-------------3-------------3-----1--11-01110111-1----3---------------------|

Chorusx2
     
 Guitar just hits the A the rest is keyboard arranged for guitar. 
e|---------------------------------------------------------------------------|
B|---------------------------------------------------------------------------|
G|-5--4--7--------------------5-----7-----7/8--7--5-------2------------------|
D|-5--2--5--4--4----4-2-0-----5-----7-----7/8--7--5-------2------------------|X2
A|-3------------------------00-00000-00000---00-00-00000--0------------------|
E|---------------------------------------------------------------------------|

e|-19p12h19-------------12h19-14p12------------------------------------------|
B|----------19p12h19-12----------------0h22p15--0h17p12----------------------|
G|----------------------------------14---------------------------------------|
D|---------------------------------------------------------------------------|
A|---------------------------------------------------------------------------|
E|---------------------------------------------------------------------------|


e|--------------------------------------------------17b-17b------------------|
B|--------------------------------------------------20b-20b------------------|
G|-----5------7------7/8------8--7---8--7--8--7--5---------------------------|
D|-----5------7------7/8------8--7---8--7--8--7--5---------------------------|
A|---00-00000--00000----00000--00--00--00--00--00--00------------------------|
E|---------------------------------------------------------------------------|


************************************

| /   slide up
| \   slide down
| h   hammer-on
| p   pull-off
| ~   vibrato
| +   harmonic
| x   Mute note
| b   Bend
| pb  Pre-bend
| br  Bend release
| pbr Pre-bend release
| brb Bend release bend
  TP  Tremelo Picking
************************************





Comments


Popular Ozzy Osbourne tabs & chords
Crazy-Train Bass Tabs
Let Me Hear You Scream Bass Tabs
Dreamer 3 Tabs
Get Me Through 1 Tabs
Gets Me Through 1 Tabs
Ghost Behind My Eyes 1 Tabs
Lightning Strikes Tabs
Perry Mason 1 Tabs
Tonight Tabs
Steal Away The Night Ukulele


Song lyrics



↑ Back to top | Tablatures and chords are parodies/interpretations of the original songs. You may use it for private study, scholarship, research or language learning purposes only
© 2014 AZChords.com Contact us | Privacy policy | DMCA | Add/correct tabs | Request tabs | Top 50 tabs