>
 >
Bloodbath In Paradise

Bloodbath In Paradise Guitar Tabs

Ozzy Osbourne - Bloodbath In Paradise chords, tabs, tablatures, lyrics

Guitar lessons | Add/correct | Request | Top 50 tabs Artists:  A B C D E F G H I J K L M N O P Q R S T U V W X Y Z 0-9

Bloodbath In Paradise Guitar Tabs – Ozzy Osbourne

CD, Sheet music, Poster

Do you like Bloodbath In Paradise? Share with your friends now
Tabs
----------------------------------------------------------------------------
----------------------------------------------------------------------------

Tune down 1/2 step: Eb Ab Db Gb Bb Eb

                           use pedal wah
       slide    with hammer on and pull off
E ----------------------------------------------------------------------|
B ----------------------------------------------------------------------|
G -------/14--po-ho-po-ho-po-ho-po-----------5-4--------repeat-3x-------|
D --2-2------14-13-14-13-14-13-14-13--5-5-/7----7-6~--------------------|
A --0-0-------------------------------3-3-------------------------------|
E ----------------------------------------------------------------------|

E ----------------------------------------------------------------------|
B ----------------------------------------------------------------------|
G -------/14--po-ho-po-ho-po-ho-po----/13-------------------------------|
D --2-2------14-13-14-13-14-13-14-13------13-12~~~----------------------|
A --0-0-----------------------------------------------------------------|
E ----------------------------------------------------------------------|
                                bend and release
E ---------------------------------------------------------------------  }
B ------------------ho--ho---------------------------------------------  }
G --2-----4----5----4-5-4-5--2-----7^-7-5---0-1-------repeat-3x--------  }
D --2-----4----5----4-5-4-5--2-----7^-7-5---0-1------------------------  }
A ----000---00---00------------000-------------------------------------  }
E ----------------------------------------x----------------------------  }  2x
                           harmonic                         end         }
E ---------------------------------------------------------/------------ }
B -------------------------------------------------ho--ho--/---12-12-12- }
G --7-7-7-7-7-7--5-5-5-5-5-5-------2-----4----5----4-5-4-5-/---12-12-12- }
D --7-7-7-7-7-7--5-5-5-5-5-5-------2-----4----5----4-5-4-5-/------------ }
A --5-5-5-5-5-5--3-3-3-3-3-3---------000---00---00---------/------------ }
E ----------------------------3~---------------------------/-00--------- }
    Prechorus
E -----------------------------------------------------------------------|
B --po------po------po--------po------po------po-------------------------|
G --5-4-----7-5-----5-4---7~--5-4-----7-5-----5-4------------------------|
D --5-4-7-7-7-5-7-7-5-4-7-7~--5-4-7-7-7-5-7-7-5-4-7-5~-------------------|
A ------7-7-----7-7-----7---------7-7-----7-7-----7-5~-------------------|
E -----------------------------------------------------------------------|
                                      0.5
E -----------------------------------------------------------------------|
B --po------po------po---------------------------------------------------|
G --5-4-----7-5-----5-4---7~--5------------------------------------------|
D --5-4-7-7-7-5-7-7-5-4-7-7~--5------------------------------------------|
A ------7-7-----7-7-----7------------------------------------------------|
E ------------------------------000000--3^-------------------------------|
    Chorus                                  harmonic
E ----------------------------------3----3-----3~------------------------|
B ------------------------------------3----3-----------------------------|
G -------5~-----7~-----5~-----7~--------0----0---------------------------|
D -------5~-----7~-----5~-----7~-----------------------------------------|
A --0000---0000---0000---0000-----3---------------5-3-2-3-2--------------|
E ----------------------------------------------------------5-3----------|
                                             harmonic
E -----------------------------------------------------------------------|
B -----------------------------------------------------------------------|
G -------5~----7~-----5~-----7~-5---------7^-5-7^------------------------|
D -------5~----7~-----5~-----7~-5---------7^-5-7^------------------------|
A --0000---0000--0000--0000----------------------------------------------|
E ---------------------------------000000--------------------------------|


 On solo
E -----------------------------------------------------------------------|
B -----------------------------------------------------------------------|
G -----------------------------------------------------------------------|
D ------------------------------5-7--------------------------------------|
A --------5^5-3~------5^5~------3-5-7------------------------------------|
E --5-3-5-------5-3-5-----5-3-5-----5-5-5-5-5-5-5------------------------|

E -----------------------------------------------------------------------|
B -----------------------------------------------------------------------|
G -----------------------------------------------------------------------|
D ------------------------------7-9--------------------------------------|
A --------7^7-5~------7^7~------5-7-9------------------------------------|
E --7-5-7-------7-5-7-----7-5-7-----7-7-7-7-7-7-7------------------------|
     Solo                                              H     H   H    H
E ------------------------------------------------------------------------|
B --5-5---8-8---10-10--------5-5--8--8---10-10----------9~----9~--8~---9~-|
G --7^7^~10^10^~12^12^~--\17-7^7^~10^10^~12^12^~-/7-----------------------|
D -----------------------\17---------------------/7-9999-9999-9999-9999---|
A ------------------------------------------------------------------------|
E ------------------------------------------------------------------------|

E ------------------------------7-----7-----7-----7------15^15-15-14-13--|
B --12--14--15--17--19------12^---12^---12^---12^---12^------------------|
G --14^-16^-17^-19^-21^-16~----------------------------------------------|
D -----------------------------------------------------------------------|
A -----------------------------------------------------------------------|
E -----------------------------------------------------------------------|
   1.5  T      T      T      T      T      T      T      1.5
E -----------po----po-----po-----po-----po-----po-----po-----------------|
B --15^~-10-5-3-10-5-3-10-5-3-10-5-3-10-5-3-10-5-3-12-5-3-17^~-----------|
G -----------------------------------------------------------------------|
D -------------------------------------------------------------/16-------|
A -----------------------------------------------------------------------|
E -----------------------------------------------------------------------|


END





Comments


Popular Ozzy Osbourne tabs & chords
You Can Kill Rock And Roll Bass Tabs
Zombie Stomp Bass Tabs
Bark At The Moon Tabs
Believer 3 Tabs
Dreamer 11 Tabs
Fire In The Sky 1 Tabs
Flyin High Again Tabs
Get Me Through 1 Tabs
Mama Im Comin Come Tabs
Dreamer Ukulele


Song lyrics



↑ Back to top | Tablatures and chords are parodies/interpretations of the original songs. You may use it for private study, scholarship, research or language learning purposes only
© 2014 AZChords.com Contact us | Privacy policy | DMCA | Add/correct tabs | Request tabs | Top 50 tabs