>
 >
Black Rain

Black Rain Guitar Tabs

Ozzy Osbourne - Black Rain chords, tabs, tablatures, lyrics

Guitar lessons | Add/correct | Request | Top 50 tabs Artists:  A B C D E F G H I J K L M N O P Q R S T U V W X Y Z 0-9

Black Rain Guitar Tabs – Ozzy Osbourne

CD, Sheet music, Poster

Do you like Black Rain? Share with your friends now
Tabs
 Black Rain

Tuning: Drop B, down 1 step. AGCFAD

Intro:

----------------------------------------|
-----0----------------------------------|
-----------2-------2------2-------------|
--------2-------2------2------2---------|
----------------------------------------|
--0-----------------------------5b6r5-3-|

Verse: (repeat intro 4 times)

Guitar break:

----PM.-----PM....----|-PM...-----PM--------| X2
----------------------|---------------------|
--2-----2h4-------2h4-|-------2h4-----------|
--2-----2h4-------2h4-|-------2h4-----------|
--2-----2---------2---|-------2-------------|
----0-0-----0-0-0-----|-0-0-0-----0-5b7~~~--|

Verse continued: (repeat guitar break 2 times)

Pre-chorus:

--------------|----------------| X3
--------------|----------------|
---6---4------|----------------|
-----------6--|---5---4-2-4-2--|
-4---4---4----|-4---4----------|
--------------|----------------|

--------------|--------------------|
--------------|--------------------|
---6---4------|--------------------|
-----------6--|---5-------4-2-2-2--|
-4---4---4----|-4---4/14\-4-0-0-0--|
--------------|--------------------|

Chorus:

-------------|------------------|------------|---------------------------|
---0---------|------------------|---0--------|---------------------------|
------2---2--|------------------|-----2---2--|---------------------------|
--------2----|------------------|-------2----|---------------------------|
-------------|------------------|------------|---------------PH----------|
-0-----------|-5b6r5-3-5b6r5-3--|-0----------|-5b6r5-3-5b6r5-3~~~--------|

repeat intro 4 times.

repeat guitar break 4 times.

repeat pre-chorus.

repeat chorus.

Interlude:

----------------------------------------12--------| X6
-12-12-12-12-12-13-12-13-12-13-12-12-15----12-12--|
--------------------------------------------------|
--------------------------------------------------|
--------------------------------------------------|
--------------------------------------------------|

Solo:

---------------------------------0---0----------|
-2b3r2-2b3r2b3r2-0h2p0h2-(2)~~-2---2---2-5------|
-------------------------------------------6----|
---------------------------------------------6--|
------------------------------------------------|
------------------------------------------------|

----------------|------------------|------------------------------------|
-6--------6---6-|-7--------------7-|-8--8-------8----7/9----------------|
----6---6-------|----6---6-6---6---|------6---6---6---------------------|
----------------|------------------|------------------------------------|
------4-----4---|------4-----4-----|--------4---------------12\---------|
----------------|------------------|------------------------------------|

Outro:

-PM.............................--| X4
----------------------------------|
----------------------------------|
----------------------------------|
----------------------------------|
-0-0-0-3-3-3-5-5-5-6-6-6-5-5-3-3--|

I'm going to post the whole black rain album tab later.





Comments


Popular Ozzy Osbourne tabs & chords
Crazy Train Bass Tabs
Crazy Train 2 Bass Tabs
Crazy Train 3 Bass Tabs
Ghost Behind My Eyes Bass Tabs
Here For You Chords
Believer 1 Tabs
Crazy TrainIntro Tabs
My Little Man Tabs
Thank God For The Bomb Tabs
Sato Ukulele


Song lyrics



↑ Back to top | Tablatures and chords are parodies/interpretations of the original songs. You may use it for private study, scholarship, research or language learning purposes only
© 2014 AZChords.com Contact us | Privacy policy | DMCA | Add/correct tabs | Request tabs | Top 50 tabs