» » »

Alive Tabs (ver.1)

Artists:  A B C D E F G H I J K L M N O P Q R S T U V W X Y Z # 

Alive Tabs (ver.1)

Ozzy Osbourne
Rating:
4/5 (1 vote)

Tabs too difficult? Try these video lessons and learn fast.
                Alive guitar tab

Tuning: eADGBE

Intro:

-----PM---PM.........--|-----PM--PM......------|-----PM--PM-----------|
-----------------------|-----------------------|----------------------|
-----------------------|-----------------------|-------------0--------|
-----------------------|-----------------------|-------------0--------|
--7p5---5---0-5-6-7-8--|-7p5---5---------PH----|-7p5---5---0----------|
--0---7-0-3-0-3-4-5-6--|-0---7-0-7-0-3-0-5~~~--|-0---7-0-6------------|

------PM--PM.........--|---PM.....----------|---PM.....---------------|
-----------------------|--------------------|-------------------------|
-----------------------|--------------------|-------------------------|
-----------------------|-0------------------|-0-----------------------|
--7p5---5---0-5-6-7-8--|-0-0-0-0-0-7/8\7-5--|-0-0-0-0-0-7/8\7-5-------|
--0---7-0-3-0-3-4-5-6--|-0-0-0-0-0-5/6\5-3--|-0-0-0-0-0-5/6\5-3-------|

----PM.....----------|------------------------------------------------|
---------------------|------------------------------------------------|
---------------------|------------------------------------------------|
--0------------------|------------------------------------------------|
--0-0-0-0-0-7/8\7-5--|-0h1p0---0-(0)h1p0---0--------------------------|
--0-0-0-0-0-5/6\5-3--|-------3-----------3---3b5----------------------|

Before the verse:

---------------------------------|
---------------------------------|
---------------------------------|
----0-----0---0------------------|
------0-----0-3--5--4--3~~~~~~~~-|
--3-----2-----1------------------|

Verse:
 Arpegiate
----0-----|------------------|---------0-------|------------------|
--3---0---|------------------|-----------3-----|------------------|
--0-----0-|----0-----0-----0-|-------0-----0---|---0-----0--------|
--2-------|------0-----0-----|-----4-----------|-----0-----0------|
--2-------|-/5-----4-----3---|---2-----------2-|-1-----2----------|
--0-------|------------------|-0---------------|--------------3---|
                                      Arpegiate
----------0--------|-----------------|--0--|-0--------------------| X2
------------3------|-----------------|--0--|---0------------------|
--------0-----0----|----0-----0------|--2--|-----2----------------|
------4---------0--|------0-----0----|--3--|----------------------|
----2--------------|-/5-----4-----3--|--3--|----------------------|
--0----------------|-----------------|--1--|----------------------|

Pre-chorus:

--PM.............-|-----PM.........--|-----PM.........------------|
------------------|------------------|----------------------------|
------------------|------------------|----------------------------|
------------------|-7/9--------------|-7/9------------------------|
--0-0-0-0-0-0-0-0-|-5/7-0-0-0-0-0-0--|-5/7-0-0-0-0-0-0------------|
--0-0-0-0-0-0-0-0-|-----0-0-0-0-0-0--|-----0-0-0-0-0-0------------|

------PM.-----PM.--|-----PM.........--|-----PM.-----PM.-----------|
-------------------|------------------|---------------------------|
-------------------|------------------|---------------------------|
--7/9--------------|-7/9--------------|-7/9-----------------------|
--5/7-----------0--|-5/7-0-0-0-0-0-0--|-5/7-----------0-----------|
------0-0-3p0-3-0--|-----0-0-0-0-0-0--|-----0-0-3p0-3-0-----------|

------PM.-----PM.--|-----PM.-----PM.--|-----PM.-----PM.-----------|
-------------------|------------------|---------------------------|
-------------------|------------------|---------------------------|
--7/9--------------|-7/9-----7/9------|-7/9-----7/9---------------|
--5/7-0-0-----0-0--|-5/7-0-0-5/7-0-0--|-5/7-0-0-5/7-0-0-----------|
------0-0-3p0-0-0--|-----0-0-----0-0--|-----0-0-----0-0-----------|

Chorus:

--PM.....-----PM.--|-PM.............--| X3
-------------------|------------------|
-------------------|------------------|
-------------------|------------------|
----------0-0------|------------------|
--0-0-0-0-----0-0--|-0-0-0-0-0-0-0-0--|

--PM.....-----PM.--|----------------------|----------------------|
-------------------|----------------------|----------------------|
-------------------|----------------------|----------------------|
-------------------|----------------------|----------------------|
----------0-0------|-0h1p0---0h1p0---0----|-/5~~-4~~-3~~~~~~-----|
--0-0-0-0-----0-0--|-------3-------3---3--|----------------------|

--PM.........-----|--------------|
------------------|--------------|
------------------|--------------|
----0-----0-------|--------------|
------0-----0--3--|-5-4-3~~~~~~--|
--3-----2------1--|--------------|

Interlude:
                                  X2
---------------|------------------|-------------|--------------|
---------------|------------------|-------------|---------PH---|
--4/7\4p3~~~~--|-4/7\4p3-3b4~~~---|-4/7\4p3~~~--|-4/7\4p3-3b4~-|
---------------|------------------|-------------|--------------|
---------------|------------------|-------------|--------------|
---------------|------------------|-------------|--------------|

Solo:

--17pb19r18-17pb19r17-17pb19r17-17pb18r17-17pb18r17------------|
---------------------------------------------------------------|
---------------------------------------------------------------|
---------------------------------------------------------------|
---------------------------------------------------------------|
---------------------------------------------------------------|

--17pb18r17p15-17p15-19p15-15h19p15-15h17p12-15p12----12-------|
---------------------------------------------------15----15p12-|
---------------------------------------------------------------|
---------------------------------------------------------------|
---------------------------------------------------------------|
---------------------------------------------------------------|

-----------------------------------| End Solo
-----12----------------------------|
--15----16\14p12-14p12-14~~~~~~~~--|
-----------------------------------|
-----------------------------------|
-----------------------------------|

That should cover basically all of the main parts of the song.
Have fun playing Alive!!!

Key:

h=Hammer on
p=Pull off
b=Bend
r=Release bend
pb=Pre bend
/=Slide up
\=Slide down
~=Vibrato
PM=Palm mute
            
Tabs too difficult? Try these video lessons and learn fast.


comments powered by Disqus
↑ Back to top | Tablatures and chords are parodies/interpretations of the original songs. You may use it for private study, scholarship, research or language learning purposes only